Song name
# A B C D E F G H I J K L M N O P Q R S T U V W X Y Z

Earl Slick - Dancing With Eleanor tab

Earl Slick has worked with John Lennon, David Bowie, Yoko Ono and Ian Hunter.
Solo works include In Your Face, Slick Trax, Razor Sharp and most recently ZigZag.

Dancing with Eleanor
ZigZag
Earl Slick

es, if you ever learn to read tabs and/or go through this......please come to Australia? :P

Standard tuning (eBGDAE)
/=slide
b=bend
~=hold 'til next note
{}=sketchy/unsure bits
Intro:
F F F F F F F FF Bb Bb Bb Bb Bb Bb Bb BbBb x2

at the end of round of F chords:
|-8-6~-|
|------|
|------|
|------|
|------|
|------|

|-1-1-8-6-5-3-1----------------------------|-1-1-8-6-5-3-1------------|
|---------------3-1~-----------------------|---------------3-1~-------|
|----------------------2-3-2-3-2-3-2-3-2~--|--------------------------|
|------------------------------------------|--------------------------|
|------------------------------------------|--------------------------|
|------------------------------------------|--------------------------|

|-1-1-8-6-5-3-1----------------------------|-1-1-8-6-5-3-1------------|
|---------------3-1~-----------------------|---------------3-1~-1-3b4-|
|----------------------2-3-2-3-2-3-2-3-2~--|--------------------------|
|------------------------------------------|--------------------------|
|------------------------------------------|--------------------------|
|------------------------------------------|--------------------------|

|---------------------------{-------------------}---------------------|
|-8-10-12-15--13-12-13-12-8-{-3-5-7/12-13/9-11/7}---------------------|
|---------------------------{-------------------}---------------------|
|---------------------------{-------------------}---------------------|
|---------------------------{-------------------}---------------------|
|---------------------------{-------------------}---------------------|


|---------------------------{----------------------------}------------|
|-8-10-12-15--13-12-17-15-8-{-3-5-7-12--0-3-5-7-3-5-7-10-}------------|
|---------------------------{----------------------------}------------|
|---------------------------{----------------------------}------------|
|---------------------------{----------------------------}------------|
|---------------------------{----------------------------}------------|


|---------------------------{--------------------}-------------------------|
|-8-10-12-15--13-12-13-12-8-{-3-5-7-12-13/9-11/7-}-8-15-13-12-8-15-13-12-8-|
|---------------------------{--------------------}-------------------------|
|---------------------------{--------------------}-------------------------|
|---------------------------{--------------------}-------------------------|
|---------------------------{--------------------}-------------------------|

|-------------------|
|-15-13-12-8-11b12~-|
|-------------------|
|-------------------|
|-------------------|
|-------------------|

|-6-5-3-1-----| 
|---------3-1-|
|-------------| Then there's a whole impro-type bit.
|-------------|
|-------------|
|-------------|

End:
|---------------|
|-13-15-13-10-6-|
|---------------|
|---------------|
|---------------|
|---------------|

Questions/Comments/Flames: izzy7.tmslick@gmail.com or spooky_ghost227@davidbowie.com
Tap to rate this tab
# A B C D E F G H I J K L M N O P Q R S T U V W X Y Z