Song name
# A B C D E F G H I J K L M N O P Q R S T U V W X Y Z

Earl Sweatshirt - Luper tab

Earl Sweatshirt
"Luper"
EARL
2010

Simple song. Can be played with
2 guitars n sounds better.

Standard Tuning (e B G D A E)

Intro/Verse (played throughout the whole song)

e---------------------------7-7-7--|
B----7-7-----7-7-7--7-7----7---7---|
G--7--7-7---6---6-7--7-7-7---------|
D---------7------------------------|
A----------------------------------|
E----------------------------------|

This is played after the 4th time intro is played.
Play anyone of em. Whichever one you're comfortable with.

e--0~--    e--0~--    e--0~--|
B--5~--    B--5~--    B--5~--|
G--6~-- or G--6~-- or G--6~--|
D------    D--7~--    D--7~--|
A------    A------    A--7~--|
E------    E------    E------|

That's it.

Enjoy

Tabbed by X8<-(Triggar8)->8X
Tap to rate this tab
 
# A B C D E F G H I J K L M N O P Q R S T U V W X Y Z