Song name
# A B C D E F G H I J K L M N O P Q R S T U V W X Y Z

Earl Sweatshirt - Chum tab

Earl Sweatshirt
"Chum"
Doris
2013

Standard Tuning (e B G D A E)

Capo 3rd Fret

Intro

e-----------|
B--1-1-1-1--|
G--0-0-0-0--|
D--2-2-2-2--|
A--3-3-3-3--|
E-----------|      

Chorus/Verse 

e-----------------------|
B--1---0-000--1---0--0--|
G--0---00-----0---00----|
D--2-2-2------2-2-2-----|
A--3---2------3---2-----|
E-----------------------|

Chorus/Verse (Simplified)

e-----------------------|      
B--------000---------0--|     
G-------0----------0----|  
D----2----------2-------|      
A--3---2------3---2-----|      
E-----------------------|

Intro
Chorus
Verse 1
Chorus
Verse 2
Chorus

Enjoy.

Tabbed by X8<-(Triggar8)->8X
1/31/13
Tap to rate this tab
 
# A B C D E F G H I J K L M N O P Q R S T U V W X Y Z