Song name
# A B C D E F G H I J K L M N O P Q R S T U V W X Y Z

Earl Sweatshirt - Hoarse tab

Song: Hoarse     (http://www.youtube.com/watch?v=8Cc-EFNA1sQ)
Album: DORIS
Artist: Earl Sweatshirt
tabbed by Daniel E.


this is a really great but difficult song, so any mistakes you found feel free to correct 
them at the comment box.


intro

e|-----------------------------------------|
B|---5s7~----8s7~----5s7~----8s7~----------|
G|---5s7~----8s7~----5s7~----8s7~----------|   x4
D|---5s7~----8s7~----5s7~----8s7~----------|
A|---3s5~----6s5~----3s5~----6s5~----------|
E|-----------------------------------------|


while this continues 4 more times, a second guitar kicks in:

e|----------------------------------------|
B|----------------------------------------|
G|---------2------2-----------2------2----|   
D|-----0-3------3---------0-3------3------|  x2
A|---5--------5---------5--------5--------|
E|----------------------------------------|




verse (kinda palm-muting, odd pattern):

e|-----------------------------------------|
B|-----------------------------------------|
G|-----------------------------------------|   x16
D|-----------------------------------------|
A|---5---0h3h5---0h3h5---0h3h5----0h3h5----|
E|-----------------------------------------|




when he says "dismissed..." at 1:09 a second guitar does this:

e|-----------------------------------------|
B|---10---10s-6~~---6s10---10s-6~~---------|
G|-----------------------------------------|  
D|---7----7s--3~~---3s7----7s-3~~----------|
A|-----------------------------------------|
E|-----------------------------------------|



chorus (same as intro):

e|-----------------------------------------|
B|---5s7~----8s7~----5s7~----8s7~----------|
G|---5s7~----8s7~----5s7~----8s7~----------|   
D|---5s7~----8s7~----5s7~----8s7~----------|
A|---3s5~----6s5~----3s5~----6s5~----------|
E|-----------------------------------------|


with this in the background:

e|----------------------------------------|
B|----------------------------------------|
G|---------2------2-----------2------2----|   
D|-----0-3------3---------0-3------3------|  
A|---5--------5---------5--------5--------|
E|----------------------------------------|



verse (x16)

then at 2:17 comes this bridge:

e|-----------------------------------------|
B|---10---10s-6~~---6s10---10s-6~~---------|
G|-----------------------------------------|  
D|---7----7s--3~~---3s7----7s-3~~----------|
A|-----------------------------------------|
E|-----------------------------------------|



at 2:45 go back to the verse until 3:01 
then chorus/outro same as bridge:

e|-----------------------------------------|
B|---10---10s-6~~---6s10---10s-6~~---------|
G|-----------------------------------------|  
D|---7----7s--3~~---3s7----7s-3~~----------|
A|-----------------------------------------|
E|-----------------------------------------|


end on:

e|-----------------------------------------|
B|-----------------------------------------|
G|----7---7---7~~--------------------------|  
D|-----------------------------------------|
A|----5---5---5~~--------------------------|
E|-----------------------------------------|
Tap to rate this tab
# A B C D E F G H I J K L M N O P Q R S T U V W X Y Z