Song name
# A B C D E F G H I J K L M N O P Q R S T U V W X Y Z

Earl Sweatshirt - Hive tab

Song: Hive (http://www.youtube.com/watch?v=0FcDXL5Aw0o)
Album: DORIS
Artist: Earl Sweatshirt
tabbed by Daniel E.

intro/verse:

e|----------------------------------------------------|
B|----------------------------------------------------|
G|----------------------------------------------------|
D|----------------------------------------------------|
A|--------------1-3----------------1-3----------------|
E|--1--1---1-3-------2--1--1---1-3------2--1--1-------|

sometimes this bassline changes like at 0:28:

e|----------------------------------------------------|
B|----------------------------------------------------|
G|----------------------------------------------------|
D|----------------------------------------------------|
A|------------1h3------------------1h3----------------|
E|--1--1---2------------1--1---2----------------------|


then back at the intro line at 0:41.


then chorus:

e|----------------------------------------------------|
B|----------------------------------------------------|
G|----------------------------------------------------|  x2
D|----------------------------------------------------|
A|--------------1-3----------------1-3----------------|
E|--1--1---1-3-------2--1--1---1-3------2--1--1-------|


with this in the background:

e|----------------------------------------------------|
B|----------------------------------------------------|
G|----------------------------------------------------|
D|---6-6--666656--6-6-66676---666656--6---------------|   x2
A|----------------------------------------------------|
E|----------------------------------------------------|

after chorus there's this bridge, which is the very same as the background on the chorus:

e|----------------------------------------------------|
B|----------------------------------------------------|
G|----------------------------------------------------|
D|---6-6--666656--6-6-66676---666656--6---------------|   x2
A|----------------------------------------------------|
E|----------------------------------------------------|


you can play the lower octaves as well if you want to:

e|----------------------------------------------------|
B|----------------------------------------------------|
G|----------------------------------------------------|
D|----------------------------------------------------|
A|----------------------------------------------------|
E|--4-4-444434--4-4-44454--444434---4-----------------|

then go back to verse at 1:34.

chorus at 2:28, then comes the Vince Staples part which has a lot of drums-only parts.

the bassline kicks in again at 3:21, then the "background" part, then drums-only... well 
just listen to the song, you cant go wrong if you really know the song.
Tap to rate this tab
 
# A B C D E F G H I J K L M N O P Q R S T U V W X Y Z