Song name
# A B C D E F G H I J K L M N O P Q R S T U V W X Y Z

Early Man - Sinking The Blade tab

Artist: Early Man
Song: Sinking the Blade
Album: Beware The Circling Fin

Tabbed By: Scott Stewart
Email: windowpane71@hotmail.com


Tuning: Standard

As always there are probably few minor variations that have been left.
I also didn't tab out the solo's.

Intro/Verse
E|-------------------------------------------------------------|
B|-------------------------------------------------------------|
G|--------------------------------------------------------8/7--|
D|--------------------------------------------------------8/7--|
A|--1p0-0-0-0-0-3p0-0-0-0-0-0-0-0-0-2p0-0-0-0-0-3p0-0-0-0-6/5--|
E|-------------------------------------------------------------|
  PM    . . . .     . . . . . . . .     . . . .     . . . 

E|-------------------------------------------------------------|
B|-------------------------------------------------------------|
G|--------------------------------------------------------7/5--|
D|--------------------------------------------------------7/5--|
A|--1p0-0-0-0-0-3p0-0-0-0-0-0-0-0-0-2p0-0-0-0-0-3p0-0-0-0-5/3--|
E|-------------------------------------------------------------|
  PM    . . . .     . . . . . . . .     . . . .     . . . 

Ending to Intro/Verse
E|-----------------------------------------|
B|-----------------------------------------|
G|--7-6-5-------7-6-5-------7-6-5-------2--|
D|--7-6-5-7-6-5-7-6-5-7-6-5-7-6-5-7-6-5-2--|
A|--5-4-3-7-6-5-5-4-3-7-6-5-5-4-3-7-6-5-0--|
E|--------5-4-3-------5-4-3-------5-4-3----|

Riff A
E|--------------------------------------------|
B|--------------------------------------------|
G|--2----------------------------2------------|
D|--2--------------------------1---1-3-2-1----|
A|--0-00-00-00-3p2p1p0-3p2p1p0-------------3--|
E|--------------------------------------------|
  PM  .. .. ..

Riff B
E|---------------------------------------------------|--------------------|
B|---------------------------------------------------|--------------------|
G|---------------------------------------------------|--------------------|
D|--7-----5/7-----8/7-----5/7-----8/7-----5/7--------|-10-10-10-10-10--8--|
A|--7-----5/7-----8/7-----5/7-----8/7-----5/7--------|-10-10-10-10-10--8--|
E|--5-0-0-3/5-0-0-6/5-0-0-3/5-0-0-6/5-0-0-3/5-0-0-0--|--8--8--8--8--8--6--|
  PM  . .     . .     . .     . .     . .     . . .

Riff B (Ending)
E|-----------------------------------------|
B|-----------------------------------------|
G|--5-5-5-5-5-5-4-4-4-4-4-4-3-3-3-3-3-3-2--|
D|--5-5-5-5-5-5-4-4-4-4-4-4-3-3-3-3-3-3-2--|
A|--3-3-3-3-3-3-2-2-2-2-2-2-1-1-1-1-1-1-0--|
E|-----------------------------------------|


E|-----------------------------------------|
B|-----------------------------------------|
G|-----------------------------------------|
D|--------------------------------------2--|
A|--0-0-7p6p5-3-0-6p5p3-2-0-5p3p2-1-0-1----|
E|-----------------------------------------|
  PM. . 


Tap to rate this tab
# A B C D E F G H I J K L M N O P Q R S T U V W X Y Z