Song name
# A B C D E F G H I J K L M N O P Q R S T U V W X Y Z

Early Man - Evil Is tab

-------------------------------------------------------------------------
                    "Evil Is" intro - Early Man
-------------------------------------------------------------------------
Tabbed by: Jonathon Smith
http://www.earlymanarmy.com/


e|------------------------------------------------------------|
B|------------------------------------------------------------|
G|------------------------------------------------------------|
D|-------14\------5/7---8\7---5\2-------14\------5/7-8--7--5--|x2
A|-0-000-12\-0000-3/5-0-6\5-0-3\0-0-000-12\-0000-3/5-6--5--3--|
E|------------------------------------------------------------|
     
e|------------------------------------------------------------|
B|------------------------------------------------------------|
G|---------7/9---5---5/7---4--5-------7/9---5---5/7-----------|
D|---------5/7---3---3/5---2--3-------5/7---3---3/5----7--5---|x2
A|-0-000-0-----0---0-----0------000-0-----0---0-----0--5--3---|
E|------------------------------------------------------------|
Tap to rate this tab
# A B C D E F G H I J K L M N O P Q R S T U V W X Y Z