Song name
# A B C D E F G H I J K L M N O P Q R S T U V W X Y Z

Early Man - Brain Sick tab

Help us improve GuitareTab! Take a short survey!
Song: Brain Sick
Artist: Early Man
Album: Closing In
Tabbed By: Conqueror

e|-------------------------------------------------|
B|-12-12-12-12-12-12-12-12-12-12-12-12-12-12-12-12-|
G|-------------------------------------------------|
D|-------------------------------------------------|
A|-------------------------------------------------|
E|-------------------------------------------------|

e|------------------------------14------------|
B|-0-12-13-0-12-15-0-12-13-0-12----0-12-13-12-|
G|--------------------------------------------|
D|--------------------------------------------|
A|--------------------------------------------|
E|--------------------------------------------|

e|------------------------------14----------|
B|-0-12-13-0-12-15-0-12-13-0-12----0-12-13~-|
G|------------------------------------------|
D|------------------------------------------|
A|------------------------------------------|
E|------------------------------------------|


This sounds 100% to me.
Related for Brain Sick tab