Song name
# A B C D E F G H I J K L M N O P Q R S T U V W X Y Z

Early November - This Wasnt In Our Plan tab

First tab so it probably isn't 100%, but I think it's about time someone tried to put this 
awesome song up. Email me if you can correct it.

Intro
e|-----------------------------------| --------------------------------------------|
B|-----------------------------------| --------------------------------------------|
G|---6-6-8-8-6-6-4-4-4-4-4-4-4-4-4-4-| --------------------------------------------|   
D|---6-6-6-6-6-6-6-6-6-6-6-6-6-6-6-6-| x8------------------------------------------|
A|-----------------------------------| -----7--x16---------------------------------|
E|-----------------------------------| --------------------------------------------|
     x x x x x x x x x x x x x x x x        x

Intro Riff/Post Chorus
e|-----------------------------------------------------------------------------------------| 
B|-----------------------------------------------------------------------------------------| 
G|-----8-6\4-3-4-3-4p3------8-6\4-3-4-6~----8-6\4-3-4-3-4/11-11-11-11-11-11-11-8-8-8-8-6-6-| 
D|---6-----------------3--6---------------6------------------------------------------------| x2
A|-----------------------------------------------------------------------------------------| 
E|-----------------------------------------------------------------------------------------|

e|----------------------------|
B|----------------------------|
G|----------------------------|
D|---7-7-7--7--7--7-7-7-7-----| x2
A|---7-7-7--7--7--7-7-7-7-----|
E|---5-5-5--5--5--5-5-5-5-----|

Verse
e|------------------------------|-------------------------------------------------|
B|------------------------------|-------------------------------------------------|
G|------------------------4-----|----------------------------------------4-4-4----|
D|---4------7------2------4-x16-|-4-4-4--------7-7-7--------2-2-2--------4-4-4-x4-|
A|---4-x16--7-x16--2-x16--2-----|-4-4-4-x4-----7-7-7--x4----2-2-2-x4-----2-2-2----|
E|---2------5------0------------|-2-2-2--------5-5-5--------0-0-0-----------------|
     x      x      x      x       x x          x x          x x          x x

Chorus
e|-----------------------|
B|-----------------------|
G|-----------9---4-------|
D|---4---7---9---4-------| x2
A|---4---7---7---2-------|
E|---2---5---------------|

Post Chorus
e|-----------------------------------------------------------------------------------------| 
B|-----------------------------------------------------------------------------------------| 
G|-----8-6\4-3-4-3-4p3------8-6\4-3-4-6~----8-6\4-3-4-3-4/11-11-11-11-11-11-11-8-8-8-8-6-6-| 
D|---6-----------------3--6---------------6------------------------------------------------| 
A|-----------------------------------------------------------------------------------------| 
E|-----------------------------------------------------------------------------------------|

e|----------------------------|
B|----------------------------|
G|----------------------------|
D|---7-7-7--7--7--7-7-7-7-----| 
A|---7-7-7--7--7--7-7-7-7-----| x2
E|---5-5-5--5--5--5-5-5-5-----|

Verse

Chorus

Bridge
e|----------|--------------------------------------------------------|
B|----------|--------------------------------------------------------|
G|----------|-6-8-6-4--6-8-6-4--6-8-6-4--6-8-6-4---------------------|   
D|----------|-6-6-6-6--6-6-6-6--6-6-6-6--6-6-6-6--x2-----------------|
A|----------|--------------------------------------------------------|
E|--4-x32---|--------------------------------------------------------|
    x

e|----------------------------|
B|----------------------------|
G|----------------------------|
D|---2-2-2--2--2--2-2-2-2-----| 
A|---2-2-2--2--2--2-2-2-2-----| x2
E|---0-0-0--0--0--0-0-0-0-----|

Chorus 

Outro
e|-----------------------------------------------------------------------------------------| 
B|-----------------------------------------------------------------------------------------| 
G|-----8-6\4-3-4-3-4p3------8-6\4-3-4-6~----8-6\4-3-4-3-4/11-11-11-11-11-11-11-8-8-8-8-6-6-| 
D|---6-----------------3--6---------------6------------------------------------------------| x2
A|-----------------------------------------------------------------------------------------| 
E|-----------------------------------------------------------------------------------------|

e|-----------------------------|
B|-----------------------------|
G|-----------------------------|
D|---7-7-7--7--7--7-7-7-7-\----| 
A|---7-7-7--7--7--7-7-7-7-\----|
E|---5-5-5--5--5--5-5-5-5-\----|

| /  slide up
| \  slide down
| h  hammer-on
| p  pull-off
| ~  vibrato
| +  harmonic
| x  Mute note
Tap to rate this tab
 
# A B C D E F G H I J K L M N O P Q R S T U V W X Y Z