Song name
# A B C D E F G H I J K L M N O P Q R S T U V W X Y Z

Early November - Power Of Love tab

i can't find this anywhere so i tried it
ive got the intro which is the whole song mostly
but i cant figure out the rest

help me and email me at jtaylorharris@yahoo.com

eb--0---0-0-3h0---0---0-0-3/5------|
Bb----3---------3---3--------------|
Gb---------------------------------|
Db---------------------------------|
Ab--3-----2-------0-----2----------|
Eb---------------------------------|

eb--0---0-0---0---0----------------|
Bb----3-----3-------3--------------|
Gb--------------------0------------|
Db---------------------------------|
Ab--3-----2-------0----------------|
Eb---------------------------------|

eb--3-------3-----3-------3--------|
Bb-----1--------------1------------|
Gb----0-------------2--------------|
Db------------0-2-3-----3----------|
Ab--3-----3------------------------|
Eb---------------------------------|

eb--3-------3-----3-------3--------|
Bb-----1--------------1------------|
Gb----0-------------2--------------|
Db------------0-2-3-----3----------|
Ab--3-----3------------------1-0---|
Eb---------------------------------|
Tap to rate this tab
# A B C D E F G H I J K L M N O P Q R S T U V W X Y Z