Song name
# A B C D E F G H I J K L M N O P Q R S T U V W X Y Z

Early November - Driving South tab

-------------------------------------------------------------------------------
			     SONG NAME - Band Name
-------------------------------------------------------------------------------
Tabbed by: ohh shoot
Email: www.myspace.com/ohshoot_itserik

Tuning: Half Step Down

Intro/Verse
(once for intro, twice for verse)
eb|-3----3---3---3----3----3----3----3----3-----3----3----3-----------------|
Bb|---3----3---3---3----3----3----3----3----3-----3----3----3---------------|
Gb|-------------------------------------------------------------------------|
Db|-3--3-----2----2---1---1-----0---0---------------------------------------|
Ab|----------------------------------------3---3-----2---2------------------|
Eb|-------------------------------------------------------------------------|

(continued)
eb|---3-----------3-----------------------------------------------------------------|
Bb|-----3---------3-----------------------------------------------------------------|
Gb|---------------0-----------------------------------------------------------------|
Db|---------------0--(listen to song for strumming)---------------------------------|
Ab|--0----2--0----------------------------------------------------------------------|
Eb|---------------3-----------------------------------------------------------------|

Chorus (part 1)
[listen to song for strumming of chords]
play x2
eb|---------3------------3-----------------------------------------------|
Bb|---------0------------3-----------------------------------------------|
Gb|---------0------------0-----------------------------------------------|
Db|---------2------------0-----------------------------------------------|
Ab|---0-2-3-3---3-2-0----------------------------------------------------|
Eb|--3-------------------3-----------------------------------------------|

Chorus (Part 2)

eb|--3--3--3--------|--3-----(play after second time)----------------|
Bb|--3--3--3--------|--3---------------------------------------------|
Gb|--2--2--0--------|--2---------------------------------------------|
Db|--2--0--2---x2---|--2---------------------------------------------|
Ab|--0--2--3--------|--0---------------------------------------------|
Eb|------------------|-----------------------------------------------|


Structure:

Intro x1
Verse x2
chorus (part 1)
chorus (part 2)
intro x1
Verse x2
Chorus (part 1)
Chorus (part 2)
Intro x2

END!!!!!

any comments... find me on good ol myspace. send me messages. haha. peeeeeace
Tap to rate this tab
 
# A B C D E F G H I J K L M N O P Q R S T U V W X Y Z