Song name
# A B C D E F G H I J K L M N O P Q R S T U V W X Y Z

Early November - No Good At Saying Sorry One More Chance tab

I think i've figured out some of the lead parts. Not positive on them though.

intro
eb|-17\15~-----15--------------------17\15~-----15----------------|
bb|-------13/15--18-17---------------------13/15--18-17-----------|
gb|---------------------------------------------------------------|
db|--------------------12/14\12\10\7--------------------12/14/17~-|
ab|---------------------------------------------------------------|
eb|---------------------------------------------------------------|

verse
eb|------------------------------------------|
bb|--------------------13-12-----------------|
gb|------12-14~------12-----------12-14--12~-|
db|-12-14-------12-14--------12-14-----------|
ab|------------------------------------------|
eb|------------------------------------------|

they play a riff in the chorus but i cant really hear it
Tap to rate this tab
# A B C D E F G H I J K L M N O P Q R S T U V W X Y Z