Song name
# A B C D E F G H I J K L M N O P Q R S T U V W X Y Z

Early November - For The Road tab

For The Road 
Drop Db/C#

For The Road was recorded on by The Early November on the
"5 Song EP" and "An Excellent Attempt at Next to Youism" Demo CD.
I used the AEAANTY version, because that is the only version I have.

 Intro/Verse

I like to think of this as 4 different chords,
but you are moving around your pinky alot

(Chords only, not pattern) You can hear
the pattern easily in the Intro.

|--------------------------------------|
|--------------------------------------|
|--11---11--9-8-9---8---11--11--9------| X3
|--9----9---9-9-9---9---9---9---9------|
|--9----7---7-7-7---6---6---7---7------|
|--9----7---7-7-7---6---6---7---7------|

Chorus

|-----------------------|
|-----------------------|
|--9----9----9----9-----| X4
|--9----9----9----9-----|
|-------7----6----7-----|
|--9----7----6----7-----|


Verse:
(Last 2 times is played softly)
|--------------------------------------|
|--------------------------------------|
|--11---11--9-8-9---8---11--11--9------| X4
|--9----9---9-9-9---9---9---9---9------|
|--9----7---7-7-7---6---6---7---7------|
|--9----7---7-7-7---6---6---7---7------|


Chorus
(6th time starts to fade out)
|-----------------------|
|-----------------------|
|--9----9----9----9-----| X6
|--9----9----9----9-----|
|-------7----6----7-----|
|--9----7----6----7-----|

Enjoy playing. Any question? Just send me a PM. I will answer.
Tap to rate this tab
# A B C D E F G H I J K L M N O P Q R S T U V W X Y Z