Song name
# A B C D E F G H I J K L M N O P Q R S T U V W X Y Z

Early November - Smell Of This Place tab

Was bored at work one day, listened to it and it sounds pretty accurate.

\\Standard
\\Capo on 3


e---------------------------------------------------------|
B-0-----0------------0-------------1------1------1~-------|
G---0-----0----2~--2---2--0----0-----0------0-------------|
D-----0-----0----------------2---2-----2------2-----------|
A-3------------3------------------------------------------|
E---------------------------------------------------------|

e---------------------------------------------------------|
B-0-----0------------0-------------1------1~--------------|
G---0-----0---2~--2----2--0----0-----0--------------------|
D-----0-----0----------------2---2-----2------------------|
A-3-----------3-------------------------------------------|
E---------------------------------------------------------|

And here's that little bit before the chorus

e---------------------------------------------------------|
B-1h0-----------------------------------------------------|
G-----2--0------------------------------------------------|
D-----------2---------------------------------------------|
A---------------------------------------------------------|
E---------------------------------------------------------|
Tap to rate this tab
 
# A B C D E F G H I J K L M N O P Q R S T U V W X Y Z