Song name
# A B C D E F G H I J K L M N O P Q R S T U V W X Y Z

Early November - Scared To Lose tab

(/) Slide Up  (\) Slide Down  (h) Hammer On  (p) Pull Off  (b) Bend (r) Release (v) Vibrato

E|----------------------------------------|----------------------------------------|-----
B|-----------------15---------------------|-------8--------------------------------|-----
G|---------12--14------14--12--14b16--12--|--7h9-----9\7---------------------------|-----
D|--10\12---------------------------------|---------------9p7p5---------7b9--5--7--|-----
A|----------------------------------------|----------------------7p6p5-------------|-----
E|----------------------------------------|----------------------------------------|-----



E|----------------------------------------|----------------------------------------|--
B|----------------------------------------|--------8--10--12--8--12b14p12------12--|--
G|-------------------------------7--5--4--|--------------------------------14------|--
D|---------------5---------------9--7--5--|--8--9-----10--12--9--------------------|--
A|--------3h5h7-----7p5p3-----3-----------|----------------------------------------|--
E|--14\6-------------------7--------------|----------------------------------------|--



E|----------------------------------|----------------------------------------|--
B|--------8--10--12--8---------5/8--|--------8--10--12--8--12b14p12------12--|--
G|----------------------4h5p4-------|--------------------------------14------|--
D|--8--9-----10--12--9--------------|--8--9-----10--12--9--------------------|--
A|----------------------------------|----------------------------------------|--
E|----------------------------------|----------------------------------------|--



E|---------10---------|---------------|--14b16p12----------------------------|--
B|--10h12--12--12p10--|--8---8--------|------------17--12--------------------|--
G|--------------------|--7h9p7--9\12--|--------------------14b16p12------12--|--
D|--------------------|---------------|------------------------------14------|--
A|--------------------|---------------|--------------------------------------|--
E|--------------------|---------------|--------------------------------------|--


http://www.guitartabcreator.com
Tap to rate this tab
# A B C D E F G H I J K L M N O P Q R S T U V W X Y Z