Song name
# A B C D E F G H I J K L M N O P Q R S T U V W X Y Z

Early November - I Want To Hear You Sad tab

----------------------------------------------------------------------------
			     SONG NAME - Band Name
----------------------------------------------------------------------------
Tabbed by:Kyle Kelly
Email:Bonez132001@yahoo.com

   Alrite 1st of all everone who has ever tabbed this song is very wrong (at least on 
site anyways). The key to the song is the tuning. So before you look at the tabs read the 
below,it will help much.


TUNING=IMPORTANT

   E- Tuned to the standard 'E'                 / -Slide Up
   B- Tuned to the standard 'B'                 \ -Slide Down
   G- -IMPORTANT-Tuned down a half step         x - Mute Note
   D- -IMPORTANT-Tuned down a half step         * -Harmonic
   A- Tuned to the standard 'A'
   E- Tuned down to Dropped 'D'



  -INTRO-
e|--------------------------------------------------------------------------|
B|--------------------------------------------------------------------------|
G|-------------------*7----------------------*7---------------------*7------|
D|----*7---*7---*7------------*7---*7---*7-----------*7---*7---*7-----------|
A|--------------------------------------------------------------------------|
E|-/4----4----4----4-------/4----4----4----4------/6----6----6----6---------|

e|--------------------------------------------------------------------------|
B|--------------------------------------------------------------------------|
G|-------------------*7----*7-----------------------------------------------|
D|----*7---*7---*7------*7----*7-------play intro 4 times-------------------|
A|--------------------------------------------------------------------------|
E|-/6----6----6----6 -------------------------------------------------------|


  -LEAD GUITAR DURING INTRO-
e|--------8---------8---------8--------8-------9-------8---------8---------8-|
B|----9---------9---------9---------9-------9--------9--------9---------9----|
G|--7---7-----7---7-----7---7-----7---7---9---9----9---9----9---9-----9---9--|
D|---------------------------------------------------------------------------|
A|---------------------------------------------------------------------------|
E|---------------------------------------------------------------------------|


  -TRANSFER INTO CHORUS-
e|--------------------------------------------------------------------------|
B|--------------------------------------------------------------------------|
G|-14-------------------14-14-14\-------------------------------------------|
D|----->>>>-Let ring--------------------------------------------------------|
A|-11-------------------11-11-11\-------------------------------------------|
E|--------------------------------------------------------------------------|


  -CHORUS-
e|--------------------------------------------------------------------------|
B|--------------------------------------------------------------------------|
G|-7777777777777------------------------------------------------------------|
D|-7777777777777---55555555555555---7777777777777---55555555555555----------|
A|-4444444444444---44444444444444---6666666666666---44444444444444----------|
E|-----------------44444444444444---6666666666666---44444444444444----------|


  -BREAKDOWN-
e|--------------------------------------------------------------------------|
B|--------------------------------------------------------------------------|
G|--6-6---6-6---6-6---6-6---7-7---7-7---7-7---7-7---------------------------|
D|--7-7---7-7---7-7---7-7---7-7---7-7---7-7---7-7---------------------------|
A|--3-3---3-3---3-3---3-3---4-4---4-4---4-4---4-4---------------------------|
E|--------------------------------------------------------------------------|


============================================================================
Tap to rate this tab
# A B C D E F G H I J K L M N O P Q R S T U V W X Y Z