Song name
# A B C D E F G H I J K L M N O P Q R S T U V W X Y Z

Early November - We Right The Wrong tab

-------------------------------------------------------------------------------
			     We Right The Wrong - The Early November
-------------------------------------------------------------------------------
Tabbed by:Dan Smith
Email:hollywood_bam@hotmail.com


Tuning:DADGBE
Guitar 1 verse/intro
e|---------------------------------------------------------------------------
B|---------------------------------------------------------------------------
G|--7------7-----------------------------------------------------------------
D|--7------7-----------------------------------------------------------------
A|--x------x-----------------------------------------------------------------
D|--7------5------------------------------------------------------------------
Guitar 2 verse/intro

e|--5-----5-----5-----5-----5------------------------------------------------
B|----3-----3-----3-----3-----3----------------------------------------------
G|------6-----6-----6-----6-----6--------------------------------------------
D|---------------------------------------------------------------------------
A|---------------------------------------------------------------------------
D|---------------------------------------------------------------------------

Guitar 1 Chorus   "in all my life..."

e|--------------5-5-5-5------------------------------------------------------
B|--------------5-5-5-5------------------------------------------------------
G|--6-6-6-6-----7-7-6-7------------------------------------------------------
D|--4-4-4-4-----7-7-7-7------------------------------------------------------
A|--4-4-4-4-----5-5-5-5------------------------------------------------------
D|--4-4-4-4------------------------------------------------------------------
Guitar 1 Verse 2/bridge
e|---------------------------------------------------------------------------
B|---------------------------------------------------------------------------
G|---------------------------------------------------------------------------
D|---------------------------------------------------------------------------
A|---------------------------------------------------------------------------
D|----/9----0----------------------------------------------------------------

Guitar 2 Verse 2/bridge

e|--------10-----------------------------------------------------------------
B|------10---10--------------------------------------------------------------
G|----7----------------------------------------------------------------------
D|---------------------------------------------------------------------------
A|---------------------------------------------------------------------------
D|---------------------------------------------------------------------------

Guitar 1 Chorus   "in all my life..."
e|--------------5-5-5-5------------------------------------------------------
B|--------------5-5-5-5------------------------------------------------------
G|--6-6-6-6-----7-7-6-7------------------------------------------------------
D|--4-4-4-4-----7-7-7-7------------------------------------------------------
A|--4-4-4-4-----5-5-5-5------------------------------------------------------
D|--4-4-4-4------------------------------------------------------------------


it gets kinda silly at the end with the little jam. im sure its around the same thing

email me with any questions. does anyone ever do that? yeah, for any questions,
or if you wanna talk TEN. hollywood_bam@hotmail.com
Tap to rate this tab
# A B C D E F G H I J K L M N O P Q R S T U V W X Y Z