Song name
# A B C D E F G H I J K L M N O P Q R S T U V W X Y Z

Early November - All We Ever Needed tab

----------------------------------------------------------------------------
                All We Ever Needed Acoustic The Early November
----------------------------------------------------------------------------
Tabbed by: beachloveex3
Email: mdagurl@yahoo.com

Tuning: Standard [E A D G B e]
i tried the other acoustic tab but in standard tuning the intro is good, but
the chorus didn't sound right so heres my version of the chorus

intro (from MThompson0205)

e|---------------------------------------------------------------------------|
B|---------------------------------------------------------------------------|
G|----------9---------------9---------------9---------------9----------------|
D|------9-------9-------9-------9-------9-------9-------9-------9------------|
A|--7---------------7---------------6---------------6------------------------|
E|---------------------------------------------------------------------------|

e|---------------------------------------------------------------------------|
B|---------------------------------------------------------------------------|
G|----------9---------------9---------------9---------------9----------------|
D|------9-------9-------9-------9-------9-------9-------9-------9------------|
A|--0---------------0---------------0---------------0------------------------|
E|---------------------------------------------------------------------------|

e|---------------------------------------------------------------------------|
B|---------------------------------------------------------------------------|
G|----------9---------------9---------------9---------------9----------------|
D|------9-------9-------9-------9-------9-------9-------9-------9------------|
A|--7---------------7---------------6---------------6------------------------|
E|---------------------------------------------------------------------------|

e|---------------------------------------------------------------------------|
B|---------------------------------------------------------------------------|
G|--9~-----------------------------------------------------------------------|
D|--9~-----------------------------------------------------------------------|
A|--0~-----------------------------------------------------------------------|
E|---------------------------------------------------------------------------|

chorus

e|---x-------x---------x---------x-------------------------------------------|
B|---x-------x---------x---------x-------------------------------------------|
G|---x-------4---------4---------2-------------------------------------------|
D|---2-------4---------2---------2-------------------------------------------|
A|---2-------2---------0---------0-------------------------------------------|
E|---0-------0---------0---------0-------------------------------------------|

so yeah thats my version of the chorus, its pretty easy i hope it sounds right to others.

peaaaaaaace


| /  slide up
| \  slide down
| h  hammer-on
| p  pull-off
| ~  vibrato
| +  harmonic
| x  Mute note
===============================================================================
Tap to rate this tab
# A B C D E F G H I J K L M N O P Q R S T U V W X Y Z