Song name
# A B C D E F G H I J K L M N O P Q R S T U V W X Y Z

Early November - All We Ever Needed Acoustic tab

The Early November
All We Ever Needed
Acoustic EP
Half Step Down

Both acoustic versions have the intro/verse correct,
but with the one version the chorus sounds very off,
so this is just another way of playing the song that sounds
pretty accurate to the song, at least melody-wise.

INTRO
eb|--------------------------------------------------------------------------------------|
Bb|--------------------------------------------------------------------------------------|
Gb|------9--------9---------9---------9--------9---------9---------9--------9------------|
Db|----9---9----9---9----9---9----9---9----9---9----9---9----9---9----9---9--------------|
Ab|--7--------7--------6---------6---------0--------0---------0---------0----------------|
Eb|--------------------------------------------------------------------------------------|

eb|-------------------------------------------------------|
Bb|-------------------------------------------------------|
Gb|------9---------9--------9---------9-------9~----------|
Db|----9---9----9---9----9---9----9---9-----9~------------|
Ab|--7--------7---------6--------6------------0~----------|
Eb|-------------------------------------------------------|

VERSE
eb|---------------------------------------------------------------------------------------------|
Bb|---------------------------------------------------------------------------------------------|
Gb|------9--------9---------9---------9--------9---------9---------9--------9--------------9~---|
Db|----9---9----9---9----9---9----9---9----9---9----9---9----9---9----9---9--- x3 ----9~--------|
Ab|--7--------7--------6---------6---------0--------0---------0---------0-------------------0~--|
Eb|---------------------------------------------------------------------------------------------|

CHORUS
eb|--0----0----0----------------|
Bb|--0----0----0----------------|
Gb|--9----9----9----------------|  x4   (First two chords get 2 beats last
Db|--9----9----9----------------|          chord gets 4 beats all 4 times)
Ab|--7----6----0----------------|
Eb|--0----0----0----------------|

REPEAT THE SAME CHORDS FOR THE "AGAIN, AGAIN" PART (let chords ring out)

Order:
Intro
Verse
Chorus
Verse
Chorus (x2)

End with the same Again, Again part as with the beginning of song
And let the song fade on the last chord
Tap to rate this tab
# A B C D E F G H I J K L M N O P Q R S T U V W X Y Z