Song name
# A B C D E F G H I J K L M N O P Q R S T U V W X Y Z

Early November - One That You Hated tab

Help us improve GuitareTab! Take a short survey!
Tabbed by: Andrew (emosideproject2@aol.com)

Intro/Verse
eb|---------------------------------------------|
Bb|---------------------------------------------|
Gb|---------------------------------------------|
Db|--6-6-6-6-6-6-9-9-9-9-9-9/2-2-2-2-2-2-2-2-2--|
Ab|--6-6-6-6-6-6-9-9-9-9-9-9/2-2-2-2-2-2-2-2-2--|
Db|--6-6-6-6-6-6-9-9-9-9-9-9/2-2-2-2-2-2-2-2-2--|
 Palm Mute....................................

Verse (Guitar 2)
eb|----------------7--------------------------------7----------------------|
Bb|-4-5-7----4-5-7---7--4-5-7-------4-5-7-----4-5-7---7--4-5-7-------------|
Gb|-------4~~-----------------4-3---------4~~------------------4--3--4-----|
Db|-------------------------------4----------------------------------------|
Ab|------------------------------------------------------------------------|
Db|------------------------------------------------------------------------|

Chorus
eb|------------------------------------------9----------9----------9---|
Bb|--------------------------------------7----------7---------7--------|
Gb|-6-6-6-6--------6-----------6-------8---8------8---8-----8---8------|
Db|-6-6-6-6--9--6--6--8--9--6--6--8--9----------9---------9------------|
Ab|-4-4-4-4--9--6--4--8--9--6--4--8------------------------------------|
Db|----------9--6-----8--9--6-----8------------------------------------|
[ps: the picking at the end is picked during the chords as well)

Post Chorus:
eb|---------------------------|
Bb|---------------------------|
Gb|---------------------------|
Db|-2-2--2-2--2-2--2-2--2--2--|
Ab|-2-2--2-2--2-2--2-2--2--2--|
Db|-2-2--2-2--2-2--2-2--2--2--|
 Palm mute..................

Bridge
eb|---------------------------------------------------------------------|
Bb|---------------------------------------------------------------------|
Gb|---------------------------------------------------------------------|
Db|-6-6-6-6-6--9-9-9-9-9--6-6-6-6-6--9-9-9-9--2-2-2-2/4--2-2-2-2/4-x2---|
Ab|-6-6-6-6-6--9-9-9-9-9--6-6-6-6-6--9-9-9-9--2-2-2-2/4--2-2-2-2/4------|
Db|-6-6-6-6-6--9-9-9-9-9--6-6-6-6-6--9-9-9-9--2-2-2-2/4--2-2-2-2/4------|

Outro
eb|---------------------------|
Bb|---------------------------|
Gb|---------------------------|
Db|-2-2-2-2-2-2--4-4-4-4-4--x6|
Ab|-2-2-2-2-2-2--4-4-4-4-4----|
Db|-2-2-2-2-2-2--4-4-4-4-4----|
Related for One That You Hated tab