Song name
# A B C D E F G H I J K L M N O P Q R S T U V W X Y Z

Early November - Everynights Another Story Acoustic tab

----------------------------------------------------------------------------
         The Early November - Every Night's Another Story (acoustic)
----------------------------------------------------------------------------

Tabbed by: MCiccone
Email: McDaddy0945@aol.com

Ok, well everyone knows the acoustic version is better, I have had this one for ever i
just never felt like posting it...but im sick of being a Newbie so I'm posting this.

Tuning: Standard

Intro:

 *Upstroke
e|--8--------------8----------x----x-----8------|* This is right, but you 
B|--8-----5-5-5-6----5----4---x----x-----8------| have to listen to the 
G|--10----6-6-------------0---x--9-x--10-10-----| song to get the ending
D|--10----x-x-------------x---x--x-x--10-10-----| chords perfect! Play 
A|--8-----4-4-------------4---x--7-x--8--8------| straight into the verse
E|--8-------------------------x----x--8--8------| 
    ^

Verse:

e|--------8--------------------8----------------------8-------|
B|--------8--------------------0----------------------8-------|
G|--------10-------------------9----------------------10------|
D|--------10-------------------x----------------------10------|
A|--------8--------------------7----------------------8-------|
E|--------8-------------------------------------------8-------|

    Make your way, Down the face, Of Everything We Know


e|--8---------------------------8--------------------8-----|* You get the 
B|--0---------------------------8--------------------0-----| idea, typical
G|--9---------------------------10-------------------9-----| T.E.N strum
D|--x---------------------------10-------------------x-----| pattern here
A|--7---------------------------8--------------------7-----|
E|------------------------------8--------------------------|

   And Go So Far, See Other Places, And Other People...

                  
                                 Continue the verse untill :

e|-8--------------------------------------------8--------------------------|
B|-8--------------------------------------------8--------------------------|
G|-10-------------------------------------------10-------------------------|
D|-10----------------10-10-10---10-10-10----8---10-------------------------|
A|-8-----------------10-10-10---10-10-10----8---8--------------------------|
E|-8-----------------10-10-10---10-10-10----8---8--------------------------|

 Did You Here, It's All___ My Fault____ Again. And I Know Why...


e|---8-----------------8--------------------------------8----|* Let last
B|---0-----------------8--------------------------------8----| chord ring!
G|---9-----------------10-------------------------------10---|
D|---x-----------------10-------10-10-10--10-10-10---8--10---|
A|---7-----------------8--------10-10-10--10-10-10---8--8----|
E|---------------------8--------10-10-10--10-10-10---8--8----|

  No One Else Knows, Why I Am...All____  A-lone__ Again.


e|--------------------------8p0----------------------------8-------|
B|-----------------5-5--6--------6/5-----------------------8-------|
G|-----------------6-6--6----------------------------------10------|
D|-----------------x-x--x----------------------------------10------|
A|-----------------4-4--4----------------------------------8-------|
E|---------------------------------------------------------8-------|

  Make It Sound So Good_______,       That It Wont Feel Right,

e|----------------8-------8---------------------------8-------------8------|
B|----------------0-------8---------------------------0-------------8------|
G|----------------9-------10--------------------------9-------------10-----|
D|----------------x-------10--------------------------x-------------10-----|
A|----------------7-------8---------------------------7-------------8------|
E|------------------------8-----------------------------------------8------|

   I Walk Alone Tonight, Out Side My House, And Out Side My Mind, No Matter

e|----------------------------| * Play that last chord Hard and Loud
B|----------------------------|
G|---------------10-----------|
D|---------------10-----------|
A|---------------0------------|
E|---------------0------------|

  What I Say, I'm Never Right.


e|--8--------------0-----------------8-----------|
B|--8--------------0-----------------8-----------|
G|--10-------------10----------------10----------|
D|--10-------------10----------------10----------|
A|--8--------------0-----------------8-----------|
E|--8--------------0-----------------8-----------|

  Breahte In Deep, Let It Out Slow, Did You Hear,

e|---------------------------------8-----------------0---------------------|
B|---------------------------------8-----------------0---------------------|
G|---------------------------------10----------------10--------------------|
D|------10-10-10---10-10-10--8-----10----------------10--------------------|
A|------10-10-10---10-10-10--8-----8-----------------0---------------------|
E|------10-10-10---10-10-10--8-----8-----------------0---------------------|

   It's All____ My Fault___ Again. And I Know Why, No One Else Knows,

e|-8------------------------------8----|* Once again, let the last Chord 
B|-8------------------------------8----| ring out...
G|-10-----------------------------8----|
D|-10-------10-10-10---10-10-10---8----|
A|-8--------10-10-10---10-10-10---8----|
E|-8--------10-10-10---10-10-10---8----|

  Why I Am, All___   A-lone___ Again.


                            *Play this part with fast Down the Up strokes
e|--x-8-----------8-----8-|-----------------------------------------------|
B|--x-8-----------8----8-8|-----------------------------------------------|
G|--x-10---9------10-10---|-----------------------------------------------|
D|--x-10---x------10------|-----------------------------------------------|
A|--x-8----7------8-------|--7-7-7-7-7-7-7-7-7-7-7-7-7-7-7-7-7-7-7-7-7-7--|
E|--x-8----0------8-------|--0-0-0-0-0-0-0-0-0-0-0-0-0-0-0-0-0-0-0-0-0-0--|

       Again,             Breathe in Deep, Let It Out Slow, Did You Hear,

Outro:
                            * The rest is just this:
e|-------|* Whenever you    |----8------------0----------------8----------|
B|-------| hear GO! Play    |----8------------0----------------8----------| 
G|-------| that.            |---10------------10---------------10---------|
D|--10---|                  |---10------------10---------------10---------|
A|--10---|                  |----8------------0----------------8----------|
E|--10---|                  |----8------------0----------------8----------|

   GO! x4                    Breathe In Deep, Let It Out Slow, Did You Hear
                             I Will Wait......I Will Wait.....I Will Wait
                                                                         x4



End On This:

e|--------------------8------|* Let last chord ring
B|--------------------8------|
G|--------------------8------|
D|-10-10-10-10-10-10--8------|
A|-10-10-10-10-10-10--8------|
E|-10-10-10-10-10-10--8------|
                              END SONG


This is like 99% correct, the real song is probably played with two guitar for the most
part, but this is my one guitar version and it sounds just as good, if not better, you
really have to listen to the song and trust me on this one, ITS RIGHT!
 

PEACE

Tap to rate this tab
# A B C D E F G H I J K L M N O P Q R S T U V W X Y Z