Song name
# A B C D E F G H I J K L M N O P Q R S T U V W X Y Z

Early November - You Dont Know What Its Like tab

You'll have to figure out the strumming pattern by yourself, 
but it's fairly simple.  I'm not sure about the last chord
so any corrections are welcome.
------------------------------------------------------------

Artist: The Early November
Song: You Don't Know What It's Like
Album: The Mother, The Mechanic, and The Path
Tuning: Half step down

Intro:

Eb|---------------------------|
Bb|---------------------------|
Gb|---------------------------|  
Db|---------------------------|  x4
Ab|-2--4--5--4----------------|
Eb|-0--0--0--0----------------|

Verse:

See you don't....
Eb|---------------------------|
Bb|---------------------------|
Gb|---------------------------|
Db|---------------------------|  x4
Ab|-2--4--5--4----------------|
Eb|-0--0--0--0----------------|

..scared to lose...
Eb|---------------------------|
Bb|---------------------------|
Gb|---------------------------|
Db|-2--4--5--4----------------|  x4
Ab|-0--0--0--0----------------|
Eb|---------------------------|

I bet that's not what you said...
Eb|---------------------------|
Bb|---------------------------|
Gb|-4------2------------------|
Db|-4------2------------------|
Ab|-2------0------------------|
Eb|---------------------------|

or

Eb|---------------------------|
Bb|---------------------------|
Gb|---------------------------|
Db|-9------7------------------|
Ab|-9------7------------------|
Eb|-7------5------------------|

Eb|---------------------------|
Bb|---------------------------|
Gb|---------------------------|
Db|---------------------------|  x4
Ab|-2--4--5--4----------------|
Eb|-0--0--0--0----------------|



Repeat Verse



Outro:

...at the age of...
Eb|---------------------------|
Bb|---------------------------|
Gb|---------------------------|
Db|---------------------------|  x6
Ab|-2--4--5--4----------------|
Eb|-0--0--0--0----------------|

...and 12.
Eb|---------------------------|
Bb|---------------------------|
Gb|------6-----8--------------|
Db|------7-----9--------------| 
Ab|-2----7-----9--------------|
Eb|-0----5-----7--------------|

or

Eb|------------0--------------|
Bb|------------0--------------|
Gb|------6-----1--------------|
Db|------7-----0--------------| 
Ab|-2----7-----2--------------|
Eb|-0----5-----0--------------|
Tap to rate this tab
# A B C D E F G H I J K L M N O P Q R S T U V W X Y Z