Song name
# A B C D E F G H I J K L M N O P Q R S T U V W X Y Z

Early November - Figure It Out tab

The Early November
Figure It Out
The Mother, The Mechanic and The Path
Tabbed by Kevin Buttery


TUning: Standard, Half Step down

Intro/Verse/Chorus Chords (listen to song for timing)

Eb-------------------------------------------|
Bb-7---10---7-77-----------------------------|
Gb-7---9----7-77-----------------------------|
Db-7---7----7-99-----------------------------|
Ab-5--------9-99-----------------------------|
Eb-------------------------------------------|


Interlude (Guitar 1):
repeated several times

Eb-5-7-----------|
Bb------5---3----|
Gb---------------|
Db-0-0-----------|
Ab--------0---0--|
Eb---------------|

Interlude (Guitar 2):

Verse Chords Arpegiated.


enjoy, great song
Tap to rate this tab
# A B C D E F G H I J K L M N O P Q R S T U V W X Y Z