Guitaretab - guitar tabs
Song name
# A B C D E F G H I J K L M N O P Q R S T U V W X Y Z

Early November - Car In 20 tab

Song: The Car In 20
Band: The Early November
Album: The Mechanic, The Mother, The Path

Tabs by: Dane
E-mail: DMSchad8864@winona.edu

Tuning: Drop D, half step down

Intro [part I]
e|-------------------7--------------------------7---------------------------|
B|-7p0-5h7-0--7p0-5h7---7-0---7p0-5h7-0--7p0-5h7-7-5h7-0---(x2)------------|
G|--------------------------------------------------------------------------|
D|--------------------------------------------------------------------------|
A|--------------------------------------------------------------------------|
E|--------------------------------------------------------------------------|

Intro [Part II]
e|--------------------------------------------------------------------------|
B|--------------------------------------------------------------------------|
G|-5------------------------------------------------------------------------|
D|-x-(x32)------------------------------------------------------------------|
A|-3------------------------------------------------------------------------|
E|--------------------------------------------------------------------------|

Verse I
e|--------------------------------------------------------------------------|
B|-----.-.-.-----.-.-.------------------------------------------------------|
G|-99-99-9-9-99-99-9-9-9---.-.-.-----.-.-----.------------------------------|
D|-99-99-9-9-99-99-9-9-97-77-7-7-75-55-5--32-0------------------------------|
A|-77-77-7-7-77-77-7-7-77-77-7-7-75-55-5--32-0------------------------------|
E|----------------------7-77-7-7-75-55-5--32-0------------------------------|

e|--------------------------------------------------------------------------|
B|-.-.-.-----.-.-.----------------------------------------------------------|
G|-9-9-9-99-99-9-9-9---.-.-.-----.-.-----.----------------------------------|
D|-9-9-9-99-99-9-9-97-77-7-7-75-55-5--32-0----------------------------------|
A|-7-7-7-77-77-7-7-77-77-7-7-75-55-5--32-0----------------------------------|
E|------------------7-77-7-7-75-55-5--32-0----------------------------------|
[ Tab from: http://www.guitaretab.com/e/early-november/93743.html ]
Chorus
e|--------------------------------------------------------------------------|
B|--------------------------------------------------------------------------|
G|--9-------7----------------3----- 7---------------------------------------|
D|--x-(x16)-x-(x16)-5--------x-(x8)-x-(x8)----------------------------------|
A|--7-------5-------x-(x16)--5------5---------------------------------------|
E|------------------5-------------------------------------------------------|

e|--------------------------------------------------------------------------|
B|--------------------------------------------------------------------------|
G|-(16)-------(14)-------(14)-------5------7-x-x-x7-------------------------|
D|--x--(x16)---x---(x16)--x---(x16)-x-(x8)-x-x-x-xx-------------------------|
A|-(14)-------(12)-------(12)-------3------5-x-x-x5-------------------------|
E|--------------------------------------------------------------------------|

(Intro [Part I & II])

(Verse)

(Chorus)

(Intro [Part I & II])

Bridge
e|--------------------------------------------------------------------------|
B|--------------------------------------------------------------------------|
G|---75~~~---7-5~~~---(10)-9-5~~~---(10)-9-5-7~~~--(x3)--------------------|
D|-5--------5--------5-------------5----------------------------------------|
A|--------------------------------------------------------------------------|
E|--------------------------------------------------------------------------|

e|--------------------------------------------------------------------------|
B|--------------------------------------------------------------------------|
G|---75~~~---7-5~~~---(10)-9-5~~~---(10)-9-5-7~~~-5~~~~--------------------|
D|-5--------5--------5-------------5----------------------------------------|
A|--------------------------------------------------------------------------|
E|--------------------------------------------------------------------------|

(Intro [Part I])  X 2

(Intro [Part II])

P = Pull-off
H = Hammer-on
~ = Hold
X = Mute
(#)= Notes 10 and over on fret
. = Mute right after you hit note

Very good song/CD!
Related for Car In 20 tab