Song name
# A B C D E F G H I J K L M N O P Q R S T U V W X Y Z

Early To Bed - Without You Acoustic tab

The amount of strums is not exact, just rough, I'm sure you can work it out for yourself :)
Standard tuning.

INTRO
|--0-0-0-0-0-0--000000---0-0-0-0-0-0-0-0-0-|
|--0-0-0-0-0-0--000000---0-0-0-0-0-0-0-0-0-|
|------------------------------------------| x2
|-141414141414--999999--121212121212121212-|
|-141414141414--999999--121212121212121212-|
|-141414141414--999999--101010101010101010-|

VERSE
The first 7th note (And the first one only) on the G string is a pinch 
harmonic for some reason, a mistake maybe...
|------------------------------------------------------|
|----5-----5------5-----5-------5-----5------5---------|
|---7-7---7-7----7-7---7-7-----7-7---7-7----7-7---7--7-| x2
|--5---5-5---5--5---5-5---5---5---5-5---5--5---5-5--5--|
|-3-----3--------------------3-----3-------------------|
|-------------33-----3-------------------33-----3--3---|

CHORUS
|--0-0-0-0-0-0-0-0-0-0-0-0-0-0000000000000-0000000000000-0000000-|
|--0-0-0-0-0-0-0-0-0-0-0-0-0-0000000000000-0000000000000-0000000-|
|-14141414141414141414141414-9999999999999-7777777777777-9999999-| x2
|-12121212121212121212121212-7777777777777-5555555555555-7777777-|
|-12121212121212121212121212-7777777777777-5555555555555-7777777-|
|----------------------------------------------------------------|

VERSE 2
|------------------------------------------------------|
|----5-----5------5-----5-------5-----5------5---------|
|---7-7---7-7----7-7---7-7-----7-7---7-7----7-7---7--7-| x2
|--5---5-5---5--5---5-5---5---5---5-5---5--5---5-5--5--|
|-3-----3--------------------3-----3-------------------|
|-------------33-----3-------------------33-----3--3---|

PRE-CHORUS
|-------------------------------000000000000-|
|-------------------------------000000000000-|
|-------------------------------777777777777-|
|-------------------------------777777777777-|
|--------------------------------------------|
|-0h2-22-0h2-22-0h2-222222-2/3--3--3--3--3---|
CONTINUED
|--------------------------------0-0-0-0-0-----0-|
|--------------------------------0-0-0-0-0----0--|
|--------------------------------7-7-7-7-7---7---|
|--------------------------------7-7-7-7-7--7----|
|------------------------------------------------|
|-0h2-22-0h2-22-0h2-222222-2/3--3-3-3-3-3--3-----|

CHORUS
|--0-0-0-0-0-0-0-0-0-0-0-0-0-0000000000000-0000000000000-0000000-|
|--0-0-0-0-0-0-0-0-0-0-0-0-0-0000000000000-0000000000000-0000000-|
|-14141414141414141414141414-9999999999999-7777777777777-9999999-| x2
|-12121212121212121212121212-7777777777777-5555555555555-7777777-|
|-12121212121212121212121212-7777777777777-5555555555555-7777777-|
|----------------------------------------------------------------|

BRIDGE
|-0000-0000--0-0-0-0--0-0-0-0-000000-0000000-|
|-0000-0000--0-0-0-0--0-0-0-0-000000-0000000-|
|-7777-9999-11111111-14141414-777777-9999999-| x2
|-xxxx-xxxx--x-x-x-x--x-x-x-x-555555-7777777-|
|-5555-7777--9-9-9-9-12121212-555555-7777777-|
|--------------------------------------------|
CONTINUED
|-0000-0000--0-0-0-0--0-|
|-0000-0000--0-0-0-0--0-|
|-7777-9999-11111111-14-|
|-xxxx-xxxx--x-x-x-x--x-|
|-5555-7777--9-9-9-9-12-|
|-----------------------|
-
|--------------|     |--0--0-|
|--------------|     |--0--0-|
|---7--7--7--7-| x17 |-14--9-|
|--5--5--5--5--|     |-12--7-|
|--------------|     |-12--7-|
|-3--3--3--3---|     |-------|

CHORUS
|--0-0-0-0-0-0-0-0-0-0-0-0-0-0000000000000-0000000000000-0000000-|
|--0-0-0-0-0-0-0-0-0-0-0-0-0-0000000000000-0000000000000-0000000-|
|-14141414141414141414141414-9999999999999-7777777777777-9999999-| x2
|-12121212121212121212121212-7777777777777-5555555555555-7777777-|
|-12121212121212121212121212-7777777777777-5555555555555-7777777-|
|----------------------------------------------------------------|
END on
|-----|
|-----|
|-----|
|-----|
|---0-|
|-5-0-|
Tap to rate this tab
# A B C D E F G H I J K L M N O P Q R S T U V W X Y Z