Song name
# A B C D E F G H I J K L M N O P Q R S T U V W X Y Z

Earshot - Again tab

Help us improve GuitareTab! Take a short survey!
Tabbed by:TIM
Email:krazy_KID6992@HOTMAIL.COM

this is my first tab ever so i hope you enjoy im pretty sure its all
correct please email me with comments and suggestions thanks and happy playing

Tuning:Drop-D

 INTRO
e|---------------------------------------------------------------------------|
B|---------------------------------------------------------------------------|
G|-6-6-----2-2-------6-6-----2-2---------------------------------------------|
D|-6-6-----2-2-------6-6-----2-2---------------------------------------------|
A|-4-4-----0-0-------4-4-----0-0---------------------------------------------|
D|---------------------------------------------------------------------------|

 VERSE
e|---------------------------------------------------------------------------|
B|---------------------------------------------------------------------------|
G|---------------------------------------------------------------------------|
D|-6-6--x-x-x-x--6-6/8-8/9-9-----7-7-x-x-7-7-7p6-6-6-6-----------------------|
A|-x-x--x-x-x-x--x/x-x/x-x-x-----7-7-x-x-7-7-7p6-6-6-6-----------------------|
D|-4-4--x-x-x-x--4-4/6-6/7-7-----7-7-x-x-7-7-7p6-6-6-6-----------------------|

 CHORUS
e|---------------------------------------------------------------------------|
B|---------------------------------------------------------------------------|
G|---------------------------------------------------------------------------|
D|[-7--9--4--6-]----[-7--9--6--10-]------------------------------------------|
A|[-7--9--4--6-]-x3-[-7--9--6--10-]-x1---------------------------------------|
D|[-7--9--4--6-]----[-7--9--6--10-]------------------------------------------|

and there you have it i havnt written down exactly the rythm or how many times to 
strum each chords but im sure you can figure that out sorry but
i couldnt tab the rest of the song but if i figure it out ill post it

| /  slide up
| \  slide down
| h  hammer-on
| p  pull-off
| ~  vibrato
| +  harmonic
| x  Mute note
===============================================================================
Related for Again tab