Song name
# A B C D E F G H I J K L M N O P Q R S T U V W X Y Z

Earshot - Unfortunate tab

This is the best i could get...i couldnt get the weird begining part though,
i cant pick out what hes playing its got too much weird distortion effect.

Int.
e----------------------------------------
B----------------------------------------
G----------------------------------------
D----0--2---0--5--3----------------------
A----0--2---0--5--3----------------------
D----0--2---0--5--3----------------------
     p.m...........

Chorus
e----------------------------------------
B----------------------------------------
G----------------------------------------
D----3-----1-----0----1------------------
A----3-----1-----0----1------------------
D----3-----1-----0----1------------------
Tap to rate this tab
 
# A B C D E F G H I J K L M N O P Q R S T U V W X Y Z