Song name
# A B C D E F G H I J K L M N O P Q R S T U V W X Y Z

Earshot - Rotten Inside tab

-----------------------------------------------------------------------------
			     Rotten Inside - Earshot
-------------------------------------------------------------------------------
Tabbed by: Jason Dubose
Email: jdubois85@hotmail.com

All i have so far is the chorus, but it's the most anyone has done of this song on the 
song

Tuning: 1/2 step down is how I play it


I haven't got the verse yet, its some kind of A to D variation on the power chords just 
around with that

Chorus

        I'm rotten inside....

e|----------------------------------------------------------------------------|
B|----------------------------------------------------------------------------|
G|----------------------------------------------------------------------------|
D|---7------10------0---------------------------------------------------------|
A|---7------10------0---------------------------------------------------------|
E|---7------10------0---------------------------------------------------------|


   I'm weak and I'm fightin all the things that you might fight
e|---------------------------------------------------------------------------|
B|---------------------------------------------------------------------------|
G|---------------------------------------------------------------------------|
D|----3--------------7------10-----0--------3--------------------------------|
A|----3--------------7------10-----0--------3--------------------------------|
E|----3--------------7------10-----0--------3--------------------------------|

Repeat Throughout Chorus
Tap to rate this tab
# A B C D E F G H I J K L M N O P Q R S T U V W X Y Z