Song name
# A B C D E F G H I J K L M N O P Q R S T U V W X Y Z

Earshot - We Fall We Stand tab

Band- earshot
Song- We fall We Stand

Tuning is drop D
Effects: Lots of distortion

  Riff A
e|------------------------------|
B|------------------------------|
G|------------------------------|
D|------------------------------|
A|------------------------------|
D|-0-1---1-0--2b2-0-1---1-1-2-3-|

  Riff B
e|--------------------------------------------------------------------|
B|--------------------------------------------------------------------|
G|--------------------------------------------------------------------|
D|-0-1-1-1-1-0-2b2--0-1-1-1-1-0-3b3--0-1-1-1-1-0-2b2--0-1-1-1-1-1-2-3-|
A|-0-1-1-1-1-0-2b2--0-1-1-1-1-0-3b3--0-1-1-1-1-0-2b2--0-1-1-1-1-1-2-3-|
D|-0-1-1-1-1-0-2b2--0-1-1-1-1-0-3b3--0-1-1-1-1-0-2b2--0-1-1-1-1-1-2-3-|

  Riff C
e|----------------------------------------------------------|
B|----------------------------------------------------------|
G|----------------------------------------------------------|
D|-0-1--1---0-2--0-1--1---0-3--0-1--1---0-2--0-1--1---1-2-3-|
A|-0-1--1---0-2--0-1--1---0-3--0-1--1---0-2--0-1--1---1-2-3-|
D|-0-1--1---0-2--0-1--1---0-3--0-1--1---0-2--0-1--1---1-2-3-|
  |------------Palm
Mute-----------------------------------|

  Riff D
e|---------------------------------------------------|
B|---------------------------------------------------|
G|-----------------2-2-2-2-2-2-2-2-------------------|
D|-0-0-0-0-0-0-0-0-2-2-2-2-2-2-2-2-2--------1--------|
A|-0-0-0-0-0-0-0-0-0-0-0-0-0-0-0-0-2--------1--------|
D|-0-0-0-0-0-0-0-0-----------------2--------1--------|

Riff A 1x
Riff B 2x
Riff C 4x
Riff D 4x
Riff A 1x
Riff C 4x
Riff D 4x
Tap to rate this tab
# A B C D E F G H I J K L M N O P Q R S T U V W X Y Z