Song name
# A B C D E F G H I J K L M N O P Q R S T U V W X Y Z

Earth - Charioteer Temple Song tab

-----------------------------------------------------------------------------
			  Charioteer (Temple Song) - Earth
-----------------------------------------------------------------------------
Tabbed by: david k
Email: thischarmingman13@gmail.com

Tuning: standard

played on a baroque guitar

e|---------------------------------------------------------------------------|
B|---------------------------------------------------------------------------|
G|-7-7-8-7-5-3-2-2-2-3-0-2-3-3-3-5-3-2---------------------------------------|
D|-0-0-0-------0-0-0-------0-0-0-----0---------------------------------------|
A|---------------------------------------------------------------------------|
E|---------------------------------------------------------------------------|

some variations extend the riff
e|---------------------------------------------------------------------------|
B|---------------------------------------------------------------------------|
G|-7-7-8-7-5-3-2-2-2-3-0-2-3-3-3-5-3-2-2-2-3-0-2-3-3-3-5-3-2-----------------|
D|-0-0-0-------0-0-0-------0-0-0-----0-0-0-------0-0-0-----0-----------------|
A|---------------------------------------------------------------------------|
E|---------------------------------------------------------------------------|


| /  slide up
| \  slide down
| h  hammer-on
| p  pull-off
| ~  vibrato
| +  harmonic
| x  Mute note
=============================================================================
Tap to rate this tab
 
# A B C D E F G H I J K L M N O P Q R S T U V W X Y Z