Song name
# A B C D E F G H I J K L M N O P Q R S T U V W X Y Z

Earth - Tallahassee tab

----------------------------------------------------------------------------
			     tallahassee - earth
-----------------------------------------------------------------------------
Tabbed by: david
Email: thischarmingman13@gmail.com

Tuning: drop d


main riff
e|---------------------------------------------------------------------------|
B|---------------------------------------------------------------------------|
G|----------------------------------------------------5----------------------|
D|------------------------------------------------5h7---7--------------------|
A|-3-/-5---5---5-5---5-5----5-/-8---8---8-8---8-8----------------------------|
D|-0---0-0-0-0-0-0-0-0-0----0---0-0-0-0-0-0-0-0-0----------------------------|
variation to the main riff (just repeat the first half)
e|---------------------------------------------------------------------------|
B|---------------------------------------------------------------------------|
G|--------------------------------------------------------5-----5-----5------|
D|--------------------------------------(solo)----7-7p5-5---5h7---7-7--------|
A|-3-/-5---5---5-5---5-5-----------------------------------------------------|
D|-0---0-0-0-0-0-0-0-0-0-----------------------------------------------------|

e|---------------------------------------x-x---------------------------------|
B|--------6~6-3-----------------6B-------x-x---------------------------------|
G|-9^10---------555-0-0-0h2-------7-5-7--x-x-----5-5-----5-------------------|
D|---------------------------------------x-x-5-7-----7-7---------------------|
A|---------------------------------------x-x---------------------------------|
D|---------------------------------------x-X---------------------------------|

e|-------8-5-8/10B-----------------------------------------------------------|
B|---8B-----------------------------------6\---------------------------------|
G|-------------------7-----5-5-----------------------------------------------|
D|---------------------5h7-----7-5--7----------------------------------------|
A|---------------------------------------------------------------------------|
D|---------------------------------------------------------------------------|
Tap to rate this tab
 
# A B C D E F G H I J K L M N O P Q R S T U V W X Y Z