Earth - Ourobos Is Broken tab

listen for timing,palm muting and other dynamics

-------------------------------|
-------------------------------|
-------------------------------|
------------10-----7-----9-----|
-2----------8 -----5-----7-----|
-0--0--------------------------|


------------------------------------------|
------------------------------------------|
------------------------------------------|
----------6-5-----------0--2-3-0----------|
--------7--------------------------5-4--2-|
-0--x0-----------0--0-0----------0-3-2--0-|


These two parts repeat. On the recording the first part of the melody has harmonies 
overdubbed. They can be played like this. Listen to the recording for when to put these in.

-----------------     -----------------|
-----------------     -----------------|
----------8-7----     ----------5-4----|
--------9-6-5----     --------6-6-5----|
--------7--------     --------7--------|
-0--x0-----------     -0--x0-----------|

When Earth play live these notes are played as pinch harmonics.
Tap to rate this tab
 
# A B C D E F G H I J K L M N O P Q R S T U V W X Y Z