Song name
# A B C D E F G H I J K L M N O P Q R S T U V W X Y Z

Earth - Descent To The Zenith tab

-------------------------------------------------------------------------------
                             Descent to the Zenith - Earth
-------------------------------------------------------------------------------
Tabbed by: an Earth fan

Tuning: Drop D (DADGBe)

x4
e|---------------------------------------------------------------------------|
B|---------------------------------------------------------------------------|
G|--------5b(6)b5------------------------------------------------------------|
D|----6----------------------------------------------------------------------|
A|6--------------------------------------------------------------------------|
D|6--------------------------------------------------------------------------|

e|---------------------------------------------------------------------------|
B|---------------------------------------------------------------------------|
G|--------3---------------1--------------------------------------------------|
D|----4---------------1---------------1---4b------1--------------------------|
A|---------------------------------------------------------------------------|
D|6---------------6---------------6------------------------------------------|

x2
e|---------------------------------------------------------------------------|
B|---------------------------------------------------------------------------|
G|---------------------------------------------------------------------------|
D|---------------------------------------------------------------------------|
A|6-------1------------------------------------------------------------------|
D|----4---1------------------------------------------------------------------|

e|---------------------------------------------------------------------------|
B|---------------------------------------------------------------------------|
G|--------3---------------1--------------------------------------------------|
D|----4---------------1---------------1---4b------1--------------------------|
A|---------------------------------------------------------------------------|
D|6---------------6---------------6------------------------------------------|

x2
e|---------------------------------------------------------------------------|
B|---------------------------------------------------------------------------|
G|---------------------------------------------------------------------------|
D|---------------------------------------------------------------------------|
A|6-------1------------------------------------------------------------------|
D|----4---1------------------------------------------------------------------|


Variation:

x2
e|---------------------------------------------------------------------------|
B|---------------------------------------------------------------------------|
G|--------5b(6)b5-------8--\6-----------4--/6-----------5--------------------|
D|----6-----------------8--\6-----------4--/6-----------6--------------------|
A|---------------------------------------------------------------------------|
D|6---------------------------------6---------------6------------------------|

x3
e|---------------------------------------------------------------------------|
B|---------------------------------------------------------------------------|
G|--------5b(6)b5------------------------------------------------------------|
D|----6----------------------------------------------------------------------|
A|---------------------------------------------------------------------------|
D|6--------------------------------------------------------------------------|

Drone chord (Outro):

Repeat until the end of the song
e|---------------------------------------------------------------------------|
B|---------------------------------------------------------------------------|
G|5--------------------------------------------------------------------------|
D|6--------------------------------------------------------------------------|
A|---------------------------------------------------------------------------|
D|---------------------------------------------------------------------------|

The second guitar will be playing various sections from the song in the background, with effects.

Coda (with phaser/tremolo):

e|---------------------------------------------------------------------------|
B|---------------------------------------------------------------------------|
G|---------------------------------------------------------------------------|
D|---------------------------------------------------------------------------|
A|4---6------/11-------------------------------------------------------------|
D|---------------------------------------------------------------------------|

e|---------------------------------------------------------------------------|
B|------------------------4--------------------------------------------------|
G|----------------------------5b(6)b5----------------------------------------|
D|---------------------------------------------------------------------------|
A|4--h6----------------------------------------------------------------------|
D|----------------4---1------------------------------------------------------|

(The final bended note here is actually played by a different guitar with no effects, 
but it was included for the convenience of solo guitarists.)

************************************

| /   slide up
| \   slide down
| h   hammer-on
| p   pull-off
| ~   vibrato
| +   harmonic
| x   Mute note
| b   Bend
| pb  Pre-bend
| br  Bend release
| pbr Pre-bend release
| brb Bend release bend

************************************
Tap to rate this tab
# A B C D E F G H I J K L M N O P Q R S T U V W X Y Z