Guitaretab - guitar tabs
Song name
# A B C D E F G H I J K L M N O P Q R S T U V W X Y Z

Earthsuit - Schizophreniac tab

----------------------------------------------------------------------------
			     Schizophreniac - Earthsuit
----------------------------------------------------------------------------
Tabbed by: fishy_sluggish
Email: psycho_slug07@hotmail.com
Tuning: Drop D


Intro: Play 4 times 2nd guitar plays 4 times as well

E|----------------------------------------(-----------------)----------|
B|----------------------------------------(-----------------)----------|
G|----------------------------------------(-7--77/9--6-6-6-)----------|
D|-2-2-2--2-2---1-1-1--1-1----------------(-----------------)----------|
A|-2-2-2--2-2---1-1-1--1-1----------------(-----------------)----------|
D|-2-2-2--2-2---1-1-1--1-1----------------(-----------------)----------|

Same Chords with different rhythme

Verse- has no guitar
[ Tab from: http://www.guitaretab.com/e/earthsuit/38520.html ]
Chorus-
E|--------------------------|
B|--------------------------|
G|--------------------------|
D|-2-2-2/5-5-5--1-1-1/4-4-4-|   Play twice then the intro again
A|-2-2-2/5-5-5--1-1-1/4-4-4-|
D|-2-2-2/5-5-5--1-1-1/4-4-4-|

Verse- no guitar
Chorus

Bridge- no guitar, then intro riff
then: play 4 times
E|----(12)---(12)---(11)---(11)-|
B|----(12)---(12)---(11)---(11)-|
G|------------------------------|
D|-4-4----4-4----1-1----1-1-----|
A|-4-4----4-4----1-1----1-1-----|
D|-4-4----4-4----1-1----1-1-----|


E|------------------------------------------------------------------|
B|-(10)/(11)-9-7-------(10)/(11)-9-7-----------(10)/(11)-9-7--------|
G|--------------(10)-8--------------(10)-8/(10)-------------(10)-8-|
D|--------------------8-------------------------------------------8-|
A|------------------------------------------------------------------|
D|------------------------------------------------------------------|
 
E|------------9------|
B|-(10)/(11)-9-(11)--|
G|-------------------|
D|-------------------|
A|-------------------|
D|-------------------|

Now play chorus