Song name
# A B C D E F G H I J K L M N O P Q R S T U V W X Y Z

East End Nowhere - A Party Song tab

 Band: East End Nowhere
 Song: A Party Song

 Intro
 Guitar 2 / Melody
 e|--0---4---5---4---7---5---4---0---7---5---4---0---2---2-4-2---2------|
 h|----5---5---5---5---5---5---5---5---5---5---5---5---0-------0--------|
 G|---------------------------------------------------------------------|
 D|-----------------------------------------------------------------3x--|
 A|---------------------------------------------------------------------|
 E|---------------------------------------------------------------------|

 Guitar 1 / Rhythm
 e|-------------------------------|
 h|-------------------------------|
 G|--1111-4444-6666---------------|
 D|--2222-4444-6666-7777----2x----|
 A|--2222-2222-4444-7777----------|
 E|--0000-----------5555----------|

 Verse
 Guitar 1 / Rhythm
 e|-------------------------------|
 h|-------------------------------|
 G|--1111-4444--------------------|
 D|--2222-4444-4444-6666----2x----|
 A|--2222-2222-4444-6666----------|
 E|--0000------2222-4444----------|
 
 e|---------------------------------------------------|
 h|---------------------------------------------------|
 G|--xx-1-xx-1-xx-4-xx-4------------------------------|
 D|--xx-2-xx-2-xx-4-xx-4-xx-4-xx-4-xx-6-xx-6----2x----|
 A|--xx-2-xx-2-xx-2-xx-2-xx-4-xx-4-xx-6-xx-6----------|
 E|--xx-0-xx-0-----------xx-2-xx-2-xx-4-xx-4----------|

 e|------------------| |-------------------------------|
 h|------------------| |-------------------------------|
 G|--1111-4----------| |--1111-4444--------------------|
 D|--2222-4--4444-6--| |--2222-4444-4444-6666----2x----|
 A|--2222-2--4444-6--| |--2222-2222-4444-6666----------|
 E|--0000----2222-4--| |--0000------2222-4444----------|

 Chorus
 Both Guitars
 e|-------------------------------------------------|
 h|-------------------------------------------------|
 G|--11111111-44444444----------11111111------------|
 D|--22222222-44444444-44444444-22222222-4444444-4--|
 A|--22222222-22222222-44444444-22222222-4444444-4--|
 E|--00000000----------22222222-00000000-2222222-2--|

 Intro 2x 

 Verse

 Chorus

 Bridge
 Guitar 1 / Rhythm
 e|------------------------------------------|
 h|------------------------------------------|
 G|--11--11--44--44--------------------------|
 D|--22--22--44--44--44--44--66--66----6x----|
 A|--22--22--22--22--44--44--66--66----------|
 E|--00--00----------22--22--44--44----------|

 Guitar 2 / Melody
 e|--4---5---4---0------------|
 h|----5---5---5---5----------|
 G|---------------------------|
 D|---------------------8x----|
 A|---------------------------|
 E|---------------------------|

 Guitar 1 / Rhythm
 e|-------------------------------|
 h|-------------------------------|
 G|--1111-4444-6666---------------|
 D|--2222-4444-6666-7777----4x----|
 A|--2222-2222-4444-7777----------|
 E|--0000-----------5555----------|

 Guitar 2 / Melody
 e|--0---4---5---4---7---5---4---0---7---5---4---0---2---2-4-2---2------|
 h|----5---5---5---5---5---5---5---5---5---5---5---5---0-------0--------|
 G|---------------------------------------------------------------------|
 D|-----------------------------------------------------------------2x--|
 A|---------------------------------------------------------------------|
 E|---------------------------------------------------------------------|

 e|--00-44-55-44-77-55-44-00-77-55-44-00-222-4-222----------|
 h|--55-55-55-55-55-55-55-55-55-55-55-55-000-0-000----------|
 G|---------------------------------------------------------|
 D|---------------------------------------------------2x----|
 A|---------------------------------------------------------|
 E|---------------------------------------------------------|

 Outro
 Guitar 1 / Rhythm
 e|------------------|
 h|------------------|
 G|--1--4--------1~--|
 D|--2--4--4--6--2~--|
 A|--2--2--4--6--2~--|
 E|--0-----2--4--0~--|

 Guitar 2 / Melody
 e|--4-5-4-0--4-5-4-0--4-5-4-0--7-5--0~--|
 h|--------------------------------------|
 G|--------------------------------------|
 D|--------------------------------------|
 A|--------------------------------------|
 E|--------------------------------------|

 Lyrics
 Id rather be
 Living til eternity
 Than walking around
 Sober on a Friday night
 
 And with all my friends
 Im celebrating til it ends
 Getting out of control
 Suddenly this girl is so beautiful
 Hey hey

 When I walk I fall to the ground
 When I sing this line make some sound

 Everything is gonna be alright
 Im feeling its right
 Everything is gonna be alright
 Im feeling good Im fine

 And well get drunk again
 Then its so much more killing me
 Is she blonde or brunette 
 Is she everything she said?
 
 Im feeling rad
 I dont remember what Ive said
 Please carry me home
 Because I cant barely stand
 Oh no
 I get no doubt 
 To get outside and shout out loud(s)
 On the radio getting crazy rocknroll
 Hey hey
 
 Enjoy playing !!!

 www.myspace.com/eastendnowhere
Tap to rate this tab
 
# A B C D E F G H I J K L M N O P Q R S T U V W X Y Z