Song name
# A B C D E F G H I J K L M N O P Q R S T U V W X Y Z

East West - Vacant tab

Vacant
by East West
c2004 Floodgate Records

This is a great band with a small record label, this is from their cd
Hope In Anguish, great for hard rock fans...

drop B tuning

Intro part 1/Chorus

C#-------------------------|
G#-------------------------|
E--------------------------|
B--6-0-0-0-6-0-6-0-0-0-0-0-|
F#-6-0-0-0-6-0-6-0-0-0-0-0-| several times
B--6-0-0-0-6-0-6-0-0-0-0-0-|

Intro part 2/Bridge

C#-----------------------------|
G#-----------------------------|
E------------------------------|
B--5-5-5-3-3-3-6-6-6-0-0-0-5-6-|
F#-5-5-5-3-3-3-6-6-6-0-0-0-5-6-|
B--5-5-5-3-3-3-6-6-6-0-0-0-5-6-|

Verses

C#-----
G#-----
E------|
B--0-0-|
F#-0-0- several times
B--0-0-

Extremely easy song to play. This tab should be correct.
Tap to rate this tab
# A B C D E F G H I J K L M N O P Q R S T U V W X Y Z