Song name
# A B C D E F G H I J K L M N O P Q R S T U V W X Y Z

East West - Zero Hour tab

This is a correction on my earlier tab, here's the correct solo

drop b

C#----------------------------------------|
G#----------------------------------------|
E-----14-12----12----10----10-10-12-10----|
B--12-------12----12----12-------------12-|
F#----------------------------------------|
B-----------------------------------------|

and the intro shimmery thing

C#------0---|
G#----3---2-|
E---2-------|
B-----------|
F#----------|
B-----------|

there you go. any corrections/comments e-mail me at eagleear00@yahoo.com
Tap to rate this tab
# A B C D E F G H I J K L M N O P Q R S T U V W X Y Z