Song name
# A B C D E F G H I J K L M N O P Q R S T U V W X Y Z

East West - For Every Wish tab

For Every Wish
by East West
c2004 Floodgate Records

Drop B tuning

The first verse has this weird effect which is pretty much just the chorus
with a weird reverb thing

Chorus

C#---------------------------------------------|
G#---------------------------------------------|
E----------------------------------------------|
B--9-9-9-9-9-9-9-5-5-5-5-5-5-2-2-2-2-2-2-5-5-5-|
F#-9-9-9-9-9-9-9-5-5-5-5-5-5-2-2-2-2-2-2-5-5-5-|
B--9-9-9-9-9-9-9-5-5-5-5-5-5-2-2-2-2-2-2-5-5-5-|

Verse 2

C#-----------------------------|
G#-----------------------------|
E------------------------------|
B--9-9-9-9-9-9-9-5-5-5-5-2-2-2-|
F#-9-9-9-9-9-9-9-5-5-5-5-2-2-2-|
B--9-9-9-9-9-9-9-5-5-5-5-2-2-2-|


Bridge

C#-----------------------|
G#-----------------------|
E------------------------|
B--2-2-0-2-0-5-0-0-2/3/2-|
F#-2-2-0-2-0-5-0-0-2/3/2-|
B--2-2-0-2-0-5-0-0-2/3/2-|

And that's it.
Tap to rate this tab
# A B C D E F G H I J K L M N O P Q R S T U V W X Y Z