Song name
# A B C D E F G H I J K L M N O P Q R S T U V W X Y Z

East West - Final Say tab

The Final Say
by East West
c2004 Floodgate Records

Drop B

Intro/Verses

C#-------------------------------------------|
G#-------------------------------------------|
E--------------------------------------------|
b--7-7-7-7-7-7-10-10-10-10-10-10-3-3-3-3-3-3-|
F#-5-5-5-5-5-5--8--8--8--8--8--8-1-1-1-1-1-1-|
B--5-5-5-5-5-5--8--8--8--8--8--8-1-1-1-1-1-1-|

Chorus

C#--------------------------------------------------|
G#--------------------------------------------------|
E---------------------------------------------------|
b--8-8-8-8-8-8-8-12-12-12-12-12-12-12-1-1-1-1-1-1-1-|
F#-8-8-8-8-8-8-8-12-12-12-12-12-12-12-1-1-1-1-1-1-1-|
B--8-8-8-8-8-8-8-12-12-12-12-12-12-12-1-1-1-1-1-1-1-|

Solo (I only know the first part, and i'm not sure it's 100% accurate)

C#----------------------------------|
G#----------------------------------|
E-----------------------------------|
b--8-10/12-8-7-7-8/5-3-1-3-5-7-8/10-|
F#----------------------------------|
B-----------------------------------|

If somebody could do the other parts of the solo, that would be awesome. I'm not good 
on guitar yet to do it. Hope this gets you started.
Tap to rate this tab
 
# A B C D E F G H I J K L M N O P Q R S T U V W X Y Z