Song name
# A B C D E F G H I J K L M N O P Q R S T U V W X Y Z

Easton Corbin - Are You With Me tab

Capo 1st Fret
Standard Tunage
First Tab sorry for any mistakes i could not find any tabs for the intro so this
is my attempt at making one

Chords used
  Em
---3----|
---3----|
--------|
---2----|
---2----|
--------|

C
---3---|
---3---|
-------|
---2---|
---3---|
-------|

G
---3---|
---3---|
-------|
-------|
---2---|
---3---|

D

---2---|
---3---|
---2---|
-------|
-------|
-------|

           em                         C
------3----3---3---3---------------------------------------------------|
--------------------------------------3---3---3---3--------------------|
-----------------------------------------------------------------------|
--------2---2---2---2--------------------------------------------------|
---------------------------------------3---3---3---3-------------------|
-----------------------------------------------------------------------|


             G                         D
-----3----3---3---3---------------------2---2----2----2--------|
---------------------------------------------------------------|
---------------------------------------------------------------|
-----------------------------------------0-----0----0----0-----|
-------2---2----2---2------------------------------------------|
---------------------------------------------------------------|
Tap to rate this tab
# A B C D E F G H I J K L M N O P Q R S T U V W X Y Z