Song name
# A B C D E F G H I J K L M N O P Q R S T U V W X Y Z

Easy Star All-stars - Breathe In The Air tab

               Speak to Me/Breathe in the Air - Easy Star All-Stars
                               Dub Side Of The Moon


Verse:

e|--7--7--7--7|--5--5--5--5|
B|--8--8--8--9|--5--5--5--5|
G|--9--9--9--9|--6--6--6--6|  play it for a long time
D|--9--9--9--9|--7--7--7--7|  
A|------------|------------|  
E|------------|------------|


Chorus:

e|--3--3--3--3|--2--2--2--2|--8---8---8---8-|--3--3-------|
B|--5--5--5--5|--3--3--3--3|--10--10--10--10|--3--3-6--4--|
G|--4--4--4--4|--4--4--4--4|--9---9---9---9-|--4--4-5--5--|
D|--5--5--5--5|--4--4--4--4|--10--10--10--10|--5--5-4--4--|
A|------------|------------|----------------|-------5--6--|
E|------------|------------|----------------|-------------|


A soft chorus tone with a little bit of reverb would be perfect for this song! 
Tap to rate this tab
 
# A B C D E F G H I J K L M N O P Q R S T U V W X Y Z