Guitaretab - guitar tabs
Song name
# A B C D E F G H I J K L M N O P Q R S T U V W X Y Z

Easyworld - A Stain To Never Fade tab

song - a stain to never fade
artist - easyworld
album - better ways to self destruct
tabbed by - rose abadchoice@hotmail.com

main riff
e-------------------------------------------------------
b-12--12--12--12-----10-10--10--11-----12--12--12-12--
g---12--12--12--12-----11--11--11--12-----12-12-12-12
d-------------------------------------------------------
a-------------------------------------------------------
e-------------------------------------------------------
[ Tab from: http://www.guitaretab.com/e/easyworld/30019.html ]
e---------15---------------
b-13--13------13-----------
g---12--12--12--12---------
d--------------------------
a--------------------------
E--------------------------

chorus intro/outro
e-15--------15------
b-----13--------13--
g---12--12----12--12
d-------------------
a-------------------
e-------------------

verse - play the main riff twise clean and twise with distortion and carry on like that all the way thru the song. 
chorus intro/outro - is with distortion on 
chorus - play main riff with distortion
Related for A Stain To Never Fade tab