Song name
# A B C D E F G H I J K L M N O P Q R S T U V W X Y Z

Easyworld - You Were Right chords

You Were Right

Intro

e---------------------|
B---------------------|
G-11b12r11---11b12r11-|
D----------0----------| a few times
A---------------------|
E---------------------|

riff 1
e-------------------------------------|
B-------------------------------------|
G-11-11-11-11-6-6-6-6-0-0-0-0-0-0-9-9-|
D-0--0--0--0--0-0-0-0-0-0-0-0-0-0-0-0-| repeated
A-------------------------------------|
E-------------------------------------|


Verse 1

riff 1
Time it came and when itís gone
All this time just sit and think of
All the things I never did for you

And my mistakes theyíve taught me well
What am I learning cos if you give me
One more chance ill only let you down


Pre Chorus

F#min                   G                               D       D/C# Bmin A
And yr less fucked up than the average girl
G               A
You are but then you always were


Chorus

D                       Emin
All I know is wrong
G                                       D
But you were right all along
D                       Emin
All I know is wrong wrong
G                               D
But you were right all along

riff 1


Verse 2 as verse 1

Little late now donít you think
To come over all self defensive
Ill take no blame for anything at all

And I donít really care to be
Picking through this wreckage just to
See the point which it all went wrong


Repeat Pre Chorus and Chorus

D C#min
Bmin                    A                       D D/C# Bmin A G
And the time is right for being right
                A
For being right

riff 1
Hereís a couple of points you missed
From your comprehensive list of
All the things I never did for you


Repeat Chorus

Outro

D
All along
        Emin
All along
        G
All along
        D
All along
D
All along
        Emin
All along
        G
All along
        D
All along


whilst the above is playing the backing vocals sing:

the end of
the end and
the things we never did and
to want and
deserve it
but was it really worth it?


Repeat Chorus

play this over the top of final chorus
(no indication of number of hits or timing)
e---------------------------------------------|
B---------------------------------------------|
G-7-9-11-12-19-18-16-14-7-9-11-12-14-16-18-19-|
D---------------------------------------------|
A-5-7-9--10-17-16-14-12-5-7-9--10-12-14-16-17-|
E---------------------------------------------|
Tap to rate this tab
# A B C D E F G H I J K L M N O P Q R S T U V W X Y Z