Song name
# A B C D E F G H I J K L M N O P Q R S T U V W X Y Z

Easyworld - Shes Something Else tab

She's Something Else

riff 1

e---------------------------------|
B---------------------------------|
G-9-9-9-9-9-9-9-9-8-8-8-8-8-8-8-8-|
D---------------------------------|
A-7-7-7-7-7-7-7-7-6-6-6-6-6-6-6-6-|
E---------------------------------|

e-------------------------------------------------|
B-------------------------------------------------|
G-14-14-14-14-14-14-14-14-12-12-12-12-12-12-12-12-|
D-------------------------------------------------|
A-12-12-12-12-12-12-12-12-10-10-10-10-10-10-10-10-|
E-------------------------------------------------|

e---------------------------------|
B---------------------------------|
G-9-9-9-9-9-9-9-9-8-8-8-8-8-8-8-8-|
D---------------------------------|
A-7-7-7-7-7-7-7-7-6-6-6-6-6-6-6-6-|
E---------------------------------|

e-------------------------------------------------|
B-------------------------------------------------|
G-14-14-14-14-14-14-14-14-14-14-12-12-14-14-12-12-|
D-------------------------------------------------|
A-12-12-12-12-12-12-12-12-12-12-10-10-12-12-10-10-|
E-------------------------------------------------|

riff 2 (this is very hard to hear but is essentially the same as the bassline)

e------------------------------|
B------------------------------|
G------------------------------|
D-2--9-11--6-6--11-9-7-7--6--4-|
A-2--9-11--6-6--11-9-7-7--6--4-|
E-0--7-9---4-4--9--7-5-5--4--2-|

Verse 1

riff 1
tonight we all smell the same
in the dark we look cool

riff one with
E            B       A        E
so it's safe to turn off your brain
E                  B
and what was that? i'm so
A                                  B
really really really i'm something else completely


Chorus 1

riff 2 x2 and
E                       B
can't hear me, can't see me
A       G#min   F#min
it's so much better this way
E                       B
believe me she's really
A       G#min   F#min
something else completely
(riff 2 stops)
A       E               B
something else completely


Verse 2 same as verse 1

show yourself in the perfect light
you kick them in so refusive
communicate in sounds all so mono-syllabic
and hello girls
yeah i'm so really really i'm really
i'm just something else completely


Chorus 2

riff 2 x4 and
E                       B
can't hear me, can't see me
A       G#min   F#min
it's so much better this way
E                       B
believe me she's really
A       G#min   F#min
something else completely
E                       B
can't hear me, can't see me
A       G#min   F#min
it's so much better this way
E                       B
believe me she's really
A       G#min   F#min
something else completely
(riff 2 stops)
A       E       C
something else


Middle 8 (each note played fast)

e-------------------------------------------------------------------------|
B-------------------------------------------------------------------------|
G-9-9-9-9-9-9-9-9-11-11-11-11-11-11-11-11-5-5-5-5-5-5-5-5-5-5-5-5-7-7-7-7-|
D-------------------------------------------------------------------------| x2
A-7-7-7-7-7-7-7-7-9--9--9--9--9--9--9--9--3-3-3-3-3-3-3-3-3-3-3-3-5-5-5-5-|
E-------------------------------------------------------------------------|

e-----------------------------------------------------------------|
B-----------------------------------------------------------------|
G-9-9-9-9-9-9-9-9-11-11-11-11-12-12-12-12-12-12-12-12-12-12-12-12-|
D-----------------------------------------------------------------|
A-7-7-7-7-7-7-7-7-9--9--9--9--10-10-10-10-10-10-10-10-10-10-10-10-|
E-----------------------------------------------------------------|

e-----------------------------------------------------------------------------|
B-----------------------------------------------------------------------------|
G-14-14-14-14-14-14-14-14-16-16-16-16-16-16-16-16-16bu18-18-18-18-18-18-18-18-|
D-----------------------------------------------------------------------------|
A-12-12-12-12-12-12-12-12-14-14-14-14-14-14-14-14-14--------------------------|
E-----------------------------------------------------------------------------|

e---------------------------------|
B---------------------------------|
G-5-5-5-5-5-5-5-5-7-7-7-7-7-7-7-7-|
D---------------------------------|
A-3-3-3-3-3-3-3-3-5-5-5-5-5-5-5-5-|
E---------------------------------|

riff 1

Chorus 2
Tap to rate this tab
# A B C D E F G H I J K L M N O P Q R S T U V W X Y Z