Song name
# A B C D E F G H I J K L M N O P Q R S T U V W X Y Z

Easyworld - Right Thing chords

Right Thing

Intro

Play with these chords

e-9--10-9---2-3-2---------------------------------------------|
B-10-10-10--3-3-3---------------------------------------------|  then after a few times
G-9--9--9---2-2-2-                                      G-4-2-|

A       D      G      A x4


Verse 1

Play the intro chords on the 9th and 2nd frets

purple lights were flashing, oh i got a
20 says your thinking of me
oh these eyes you made all night
if they could talk they wouldnt let them on the tv
ya know what I mean


Chorus

A       D
Woah
G               A              D
Wanna do the right thing
G       A      D
Woah
G                       A              D      G
I only wanna do the right thing


Verse 2 same as verse 1

kill this conversation
oh i got a feeling that it's getting closer yeah
smell my desperation, oh
I got a chemistry of voices in my head
that say your what i need


Repeat Chorus


Solo (remember this is vaguely improvised by dav)

----------------------------------------------------------------------------------|
----15b16(pinched harmonic)---------13b14-13b14r13----15b16-13b14-----------------|
-14---------------------------12-14----------------14-------------14-12-11--------|
----------------------------0----------------------------------------------14-12/-|
----------------------------------------------------------------------------------|
----------------------------------------------------------------------------------|

----------                                      -------------------------------|
-------17-                                      -------------------------------|
-16b18---- repeated several times               -14-12-11----------------------|
----------                                      ----------14-12----------------|
----------                                      ----------------15-14b15r14-12-|
----------                                      -------------------------------|


Verse 3 as with verse 1

Ahooooo aho
the warning lights are flashing
oh .. I got a feeling Iíve got something so wrong
wheres my satisfaction
i guess it's looks a little like that everything was leading you on


Repeat Chorus with waaaaaaailing :)
Tap to rate this tab
# A B C D E F G H I J K L M N O P Q R S T U V W X Y Z