Song name
# A B C D E F G H I J K L M N O P Q R S T U V W X Y Z

Easyworld - People Who Dont Climb Ladders tab

People Who Donít Climb Ladders
(arenít particularly likely to fall off ladders now, are they?)

Picking Riff

-----0-----------|
-------2-----0---|
---------------3-|
---4-------------|
-2---------4-----|
---------2-------|


Intro

Repeat picking riff


Verse 1

picking riff repeated

now youll never be a freak my dear
now youll never be a freak
a stupid haircut and yr halfway there
but youll never be a freak


Chorus

G       A               picking riff
rung by fucked up rung


Verse 2

Picking riff repeated

sickest jokes are on the unprepaired
so work this one out Hercule
no youll never be a freak my dear
(something) no thanks to you


Repeat Chorus

Solo (loosely played)

-----------\0------------------------------------------------------------------|
-----------\0--5b6r5/------------------------------------9b10r9----------------|
-9b11(ish)-\0--5b6r5/--5b7(slow with feedback)-7b9r7-----9b10r9----------------|
-----------\0----------------------------------------6b7-----------------------|
-----------\0------------------------------------------------------------------|
-----------\0---------------------------------------------------5(whammy drop)-|


Verse 3

Picking riff repeated

sickest jokes are on the unprepaired
so work this one out Hercule
no youll never be a freak my dear
no youll never be Hercule


Repeat Chorus

end mix picking riff with very random note bends and guitar thrashing
Tap to rate this tab
# A B C D E F G H I J K L M N O P Q R S T U V W X Y Z