Song name
# A B C D E F G H I J K L M N O P Q R S T U V W X Y Z

Easyworld - Little Sensation tab

Little Sensation

riff
e--------------------------------------------|
B--------------------------------------------|
G-9-9-9-9-9--9-9-9-9-9--8-8-8-8-8--8-8-8-8-8-|
D--------------------------------------------|
A-7-7-7-7-7--7-7-7-7-7--6-6-6-6-6--6-6-6-6-6-|
E--------------------------------------------|

e----------------------------------------------|
B----------------------------------------------|
G-6-6-6-6-6--6-6-6-6-6--5-5-5-5-5--5-5-5-5-5-4-|
D----------------------------------------------|
A-4-4-4-4-4--4-4-4-4-4--3-3-3-3-3--3-3-3-3-3-2-|
E----------------------------------------------|


Intro

repeated riff


Verse 1

repeated riff throughout

become a little sensation
become the next sure thing
a little populous pleaser
and let the idiots sing
and all the kids gone crazy
and all americans dream
to be the self proclaiming bastard
i pretend to be seen
be yourself take this day
you know, yeah
the louder you shout
the less that you say
you know, yeah

A (bend the chord up slightly)


Chorus

E       B              A      C      B
say nothing and disappear
E       B              A      C      B
say nothing and disappear


Verse 2 as with verse 1

so everybody act natural
this song is on air
can repeat it like a mantra
well I don't care
and all the kids gone crazy
and all americans dream
to be the self proclaiming bastard
i pretend to be seen
be yourself take this day
you know, yeah
the louder you shout
the less that you say
you know, yeah

Repeat Chorus


Solo

----------------------------------|
----------------------------------|
-9-14-13-8-14-13-5-4-2-4-5-7-9-11-|
---------------------2------------|
-7-12-11-6-12-11-3-2-0-2-3-5-7-9--|
----------------------------------|


Verse 3

repeat riff but play each note once instead of around 4 times

i know what you're thinking
what about me?
i keep my enemies closer...


Repeat Chorus

then repeat the chorus with this instead of going to the C and B chord on the last line

--------------------0-|
--------------------0-|
-2-4-5-7-9-11-12-14-1-|
-2------------------2-|
-0-2-3-5-7-9--10-12-2-|
--------------------0-|
Tap to rate this tab
# A B C D E F G H I J K L M N O P Q R S T U V W X Y Z