Song name
# A B C D E F G H I J K L M N O P Q R S T U V W X Y Z

Easyworld - Lights Out tab

Lights Out

Note: sometimes in the intro and the chorus the bass implies that the note
is a G# and that the chord accompanying it is a G#min however I think dav
plays a C#min at the same time as jo plays the G#. plays what sounds best to
your ears ill leave it as what I think it is but its either a G#min or C#min

N.C.
At the third stroke the time will be four twenty four precisely


Intro

E B C#min A A G#min F#min x2


Verse 1

e-------0--------0--------0----------0---------0---------0---------0---------0---|
B---------0--------0--------0----------0---------0---------0---------0---------0-|
G----13-------13--------14--------14--------16--------16--------14--------14-----| x2
D-16-------16--------16--------16--------16--------16--------16--------16--------|
A--------------------------------------------------------------------------------|
E--------------------------------------------------------------------------------|
 after all is said and nothing's (first time)
 done where are we then? (second time)

(muted)
E         B        G#min      A    A G#min F#min
all comes crashing round your feet and
E         B        G#min      A    A G#min F#min
does that change a thing?

(no muting)
C#min             B                A
you said it's the best day of your life
             B
well, that's so damn true


Chorus

Quietly over top of chorus
e---------------------------------------------|
B---------------------------------------------|
G-16-16-16-16-14-14-14-13-14-14-13-11-9-9-9-9-| x2
D---------------------------------------------|
A-14-14-14-14-12-12-12-11-12-12-11-9--7-7-7-7-|
E---------------------------------------------|

E       B
now the lights are all out
C#min               A
and the systems are down
E   B
for once in my life
C#min         A
i think we're getting somewhere...


Verse 2 repeat music from verse 1

somewhere near the end of everything
what do you care?
as one by one the lights go out and
sun comes up again
you said it's the best day of your life
well, that's so damn true


Repeat Chorus


Middle 8

e-----------------------------|
B-----------------------------|
G-----------------------------|
D-11-11--11\9-9--8-8--8\7-7-7-| x2
A-----------------------------|
E--9--9---9\7-7--6-6--6\5-5-5-|


repeat intro chords with ooohs


Repeat Chorus x2
Tap to rate this tab
# A B C D E F G H I J K L M N O P Q R S T U V W X Y Z