Song name
# A B C D E F G H I J K L M N O P Q R S T U V W X Y Z

Easyworld - Hundredweight chords

Hundredweight


riff 1 (these arent the number of times u hit each not, it is just the notes u hit)

e----------------------|
B----------------------|
G----------------------|
D----------------------|
A--4--8--4--9---12--9--|
E--5--9--2--10--10--10-|


Intro

riff 1 x4

Verse 1

riff 1 x4
i wear
you down
i walk into the room
and it gets much colder
each limb
A ton
then my hundredweight head
and i sink through the carpet

A         E
i am sunk
   C#min   D
so low
Dmin
what's the matter with you


Chorus

Play this over chorus words

  A                 F#min E
---------------2-2--0-0-   ----------------------------------------------|
-2-2-----------2-2--0-0-   ----------------------------------------------|
-2-2ó4b6r4-2---2-2--1-1-x3 -4-4-6-6-8-8-11-11-9--7-6---------------------|
-2-2---------4-4-4--2-2-   --------------------------7-------7-9b10r9-7--|
-0-0-----------4-4--2-2-   -2-2-4-4-6-6-9--9--7--------7-7/9-------------|
---------------2-2--0-0-   ----------------------------------------------|

you wear your monday morning face
i know
you think i'm a waste of your time
hello
i'm no-one you'd want to meet


Verse 2 repeat music from verse one

i grind you down
i walk into the room
and it gets much
darker
each limb
A ton
then my hundredweight head
and i sink through the carpet
i Am
sunk
so low


Repeat Chrous


Middle 8

D G Bmin   A
Oh! Well I donít wanna know!
D G Bmin   A
Oh! Well I donít wanna know!
D G Bmin   A
Oh! Well I donít want
E  Eb  D
Ohhhhhhhh  whats the matter with you


Repeat Chorus
Tap to rate this tab
 
# A B C D E F G H I J K L M N O P Q R S T U V W X Y Z