Song name
# A B C D E F G H I J K L M N O P Q R S T U V W X Y Z

Easyworld - Hopelessly Devoted To You chords

Hopelessly Devoted to You (cover)

Cdim(inished) x45353 like C7 but with the 2nd finger on the Astring 4th fret


Intro

Chords and Dmin and A
e-------------------------------------------------|
B-6-5-6-6b8r6-5--6-5-6-6b8-5--6-5-6-6b8r6-5-------|
G-------------------------------------------7-7/9-|
D-------------------------------------------------|
A-------------------------------------------------|
E-------------------------------------------------|


Verse 1

Rough picking guide
e-------------------------------------------------------------------0-----|
B-------5-----------5-----------7-----8-7-------7-------3-------------0---|
G-----6---6-------6---6-------7---7-------7---7-------4---4-------1-----1-|
D---7-------7---6-------6---7-------7-------7-------4-------4---2---------|
A-7-----------4-----------5-----------------------2-----------2-----------|
E-------------------------------------------------------------------------|

e-------------2-------0-----------0-----------0-----------0-------------|
B-------2-----2---------0-----------0-----------0-----------0-----------|
G-----1---1---2-----2-----2-----3-----------4-----------3---------------|
D---2-------2-2---2-----------4-------4---5-------5---4-------4---------|
A-0-----------0-0-----------4-----------5-----------4-------------------|
E-----------------------------------------------------------------------|

e-------2-----------2-----4-4-4-3-2-0-|
B---------3-----------3---5-5-5-4-3-0-|
G-----4-----4-----4-----4-6-6-6-5-4-1-|
D---4-----------4---------6-6-6-5-4-2-|
A-2-----------2-----------4-4-4-3-2-2-|
E-----------------------------------0-|

I guess mine is not the first heart broken
My eyes are not the first to cry
Im not the first to know
Theres just no getting over you

I guess im just a fool whos willing
To sit around and wait for you
Baby cant you see
theres nothing left for me to do
Im hopelessly devoted to you.


Repeat Last Bit of Intro


Chorus

Gmin
But now there's no way to hide
                        C
Since you pushed my heart aside
F       Fmaj7           Cdim    D7      Gmin
I'm outta my head hopelessly devoted to you
(Gmin)          Cdim    Intro Riff
Hopelessly devoted to you


Verse 2 repeat picking pattern

My head is saying fool forget him
My heart is saying don't let go
Hold on to the end, that's what I intend to do
I'm hopelessly devoted to you


Chorus

Gmin
But now there's no way to hide
                        C
Since you pushed my heart aside
F       Fmaj7           Cdim    D7      Gmin
I'm outta my head hopelessly devoted to you
(Gmin)          Cdim
Hopelessly devoted to you

G-7-6-5-4-|
D---------|
A-5-4-3-2-|
E---------|

Gmin            Cdim    Bbmin   F
Hopelessly devoted to you
Tap to rate this tab
# A B C D E F G H I J K L M N O P Q R S T U V W X Y Z